Velvet Revolver - Sucker Train Blues Chords & Tabs

 

Sucker Train Blues Chords & Tabs

Velvet Revolver Chords & Tabs

Version: 4 Type: Tab 0 ratings
1 star 2 stars 3 stars 4 stars 5 stars
comments

Sucker Train Blues Tab

   
----------------------------------------------------------------------------
			     Sucker Train Blues - Velvet Revolver
----------------------------------------------------------------------------
Tabbed by: -B-Squared-
Email: onlykneedeep@yahoo

Tuning: Standard.
Intro - Clean, Maybe a little echo.
e|---------------|
B|--0--3-2----0--|
G|3---------3----|
D|---------------|
A|---------------|
E|---------------|

____________________________________________________________________________
Chorus-gtr 1 Distortion
                                              x2
e|---------------------------------------------|
B|---------------------------------------------|
G|---------------------------------------------|
D|5---------------2----------------------------|
A|5---------------2----------------------------|
E|33333333333333330000000000000000-------------|
   ............... ...............

Chorus Lead-gtr 2                                                           x2
e|----------------|----------------------------------------------------|
B|----------------|----------------------------------------------------|
G|----------------|----------------------------------------------------|
D|----------------|----------------------------------------------------|
A|--4-5---8-7-4-5-|--1-2---5-4-1-2-------------------------------------|
E|33-3-333-3-3-3-3|00-0-000-0-0-0-0------------------------------------|
  .. . ... . . . .       .. . ... . . . .

Chorus Gtr 3 (only plays second time through)
e|---------33--33-----------------00--00-------------------------------------|
B|---------33--33-----------------00--00-------------------------------------|
G|--------5---5------------------2---2---------------------------------------|
D|---------------------------------------------------------------------------|
A|---------------------------------------------------------------------------|
E|---------------------------------------------------------------------------|
          b   b                  b   b
[ Tab from: http://www.guitartabs.cc/tabs/v/velvet_revolver/sucker_train_blues_tab_ver_4.html ]
____________________________________________________________________________

verses-One guitar   x3

e|---------------------|----------------------------------------------------|
B|------Rest Four beats|----------------------------------------------------|
G|---------------------|----------------------------------------------------|
D|---------------------|----------------------------------------------------|
A|221-2----------------|221-2---5-4-1-2-------------------------------------|
E|00-0-----------------|00-0-000-0-0-0-0------------------------------------|
     .                     . ... . . . .

                  x4
e|----------------|---------------------------------------------------------|
B|----------------|---------------------------------------------------------|
G|----------------|---------------------------------------------------------|
D|----------------|---------------------------------------------------------|
A|221-2-----------|---------------------------------------------------------|
E|00-0-00000000000|---------------------------------------------------------|
     . ...........


Pre chorus

Gtr-1
  A       G       b
e|--------------------------------|
B|--------------------------------|
G|----------------4444444444444444|
D|77777777555555554444444444444444|
A|77777777555555552222222222222222|
E|5555555533333333----------------|

gtr- 2
e|-------------------------77--77-|
B|-------------------------77--77-|
G|------------------------9---9---|
D|--------------------------------|
A|--------------------------------|
E|--------------------------------|
                         b    b

Bridge
| D | C | E | E | x3
| D | C | b | b |

| E | E | G | G |3x

| A | G | b | b  |  C  |

| .  palm mute
| b  Bend
============================================================================
Comments