Velvet Revolver - Sucker Train Blues Chords & Tabs

 

Sucker Train Blues Chords & Tabs

Velvet Revolver Chords & Tabs

Version: 2 Type: Bass Tab 0 ratings
1 star 2 stars 3 stars 4 stars 5 stars
comments

Sucker Train Blues Bass Tab

   
Intro :  (Repeat many times)

G|--9--9-9-9-9----9-9-9-9-9-9-0-9--------------------|
D|-------------h0------------------------------------|        X8
A|---------------------------------------------------|    
E|---------------------------------------------------|  


Riff A

G|-------------------------------|--------------------------------| X2
D|-------------------------------|--------------------------------| 
A|-------------------------------|--------------------------------|   
E|-3-3---3---3--3---3---3------3-|-0-0---0---0--0----0---0------0-|


Verse 
[ Tab from: http://www.guitartabs.cc/tabs/v/velvet_revolver/sucker_train_blues_btab_ver_2.html ]
G|-----------------------|  
D|-----------------------|  X8  
A|--7-7-7-7-7-7-7-7----7-|  
E|-----------------------|  


Pre-Chorus 


G|-------------------------------------|  
D|-------------------------------------|    
A|-------------------------------------|    
E|-5-555555-3-333333-7-77777777777777--|   


Chorus (same as intro)

G|-------------------------------|--------------------------------| X4
D|-------------------------------|--------------------------------| 
A|-------------------------------|--------------------------------|   
E|-3-3---3---3--3---3---3------3-|-0-0---0---0--0----0---0------0-|

2 verse (same as first)
Pre chorus
Chorus
Guitar solo (same as riff a)

Enjoy it  ||| Velvet Revolver Rocks |||
Comments