Velvet Revolver - Sucker Train Blues Chords & Tabs

 

Sucker Train Blues Chords & Tabs

Velvet Revolver Chords & Tabs

Version: 1 Type: Bass Tab 2 ratings
1 star 2 stars 3 stars 4 stars 5 stars
comments

Sucker Train Blues Bass Tab

Song: Sucker Train Blues
Artist: Velvet Revolver
Album: Contraband

Standard Tuning

/-Slide
x-Tap String

Duff uses a pick most of the time so I use one. Sounds better.

Intro
G|------------------------|-----------------------|
D|------------------------|-------------------5---|
A|---7--7-7-7--5--7--7--7-|-7--7--7--7--5--7-----7|
E|------------------------|-----------------------|

G|--------------------------|-------------------x----|
D|--------------------------|------------------------|
A|---7--7--7--7--5--7--7--7-|-7--7--7--7--------5--7-|
E|--------------------------|-------------5/7--------|

______________________________________________________

G|------------------------|-----------------------|
D|------------------------|-------------------5---|
A|---7--7-7-7--5--7--7--7-|-7--7--7--7--5--7-----7|
E|------------------------|-----------------------|

G|--------------------------|-------------------x----|
D|--------------------------|------------------------|
A|---7--7--7--7--5--7--7--7-|-7--7--7--7--------5--7-|
E|--------------------------|-------------5/7--------|

______________________________________________________

G|------------------------|-----------------------|
D|------------------------|-------------------5---|
A|---7--7-7-7--5--7--7--7-|-7--7--7--7--5--7-----7|
E|------------------------|-----------------------|

G|--------------------------|-------------------x----|
D|--------------------------|------------------------|
A|---7--7--7--7--5--7--7--7-|-7--7--7--7--------5--7-|
E|--------------------------|-------------5/7--------|

______________________________________________________

G|------------------------|-----------------------|
D|------------------------|-------------------5---|
A|---7--7-7-7--5--7--7--7-|-7--7--7--7--5--7-----7|
E|------------------------|-----------------------|

G|--------------------------|-------------------x----|
D|--------------------------|------------------------|
A|---7--7--7--7--5--7--7--7-|-7--7--7--7--------5--7-|
E|--------------------------|-------------5/7--------|

_______________________________________________________

Main Riff
G|-----------------------------|--------------------------------|
D|-----------------------------|--------------------------------| 
A|-----------------------------|--------------------------------|   
E|-3-3-3-3-3-3-3-3-3-3-3-3-3-3-|-0-0-0-0-0-0-0-0-0-0-0-0-0-0----|

G|-----------------------------|--------------------------------|
D|-----------------------------|--------------------------------| 
A|-----------------------------|--------------------------------|   
E|-3-3-3-3-3-3-3-3-3-3-3-3-3-3-|-0-0-0-0-0-0-0-0-0-0-0-0-0-0----|
___________________________________________________________________

Verse 1 (Same as Intro)
G|------------------------|-----------------------|
D|------------------------|-------------------5---|
A|---7--7-7-7--5--7--7--7-|-7--7--7--7--5--7-----7|
E|------------------------|-----------------------|

G|--------------------------|-------------------x----|
D|--------------------------|------------------------|
A|---7--7--7--7--5--7--7--7-|-7--7--7--7--------5--7-|
E|--------------------------|-------------5/7--------|

______________________________________________________

G|------------------------|-----------------------|
D|------------------------|-------------------5---|
A|---7--7-7-7--5--7--7--7-|-7--7--7--7--5--7-----7|
E|------------------------|-----------------------|

G|--------------------------|-------------------x----|
D|--------------------------|------------------------|
A|---7--7--7--7--5--7--7--7-|-7--7--7--7--------5--7-|
E|--------------------------|-------------5/7--------|

______________________________________________________

G|------------------------|-----------------------|
D|------------------------|-------------------5---|
A|---7--7-7-7--5--7--7--7-|-7--7--7--7--5--7-----7|
E|------------------------|-----------------------|

G|--------------------------|-------------------x----|
D|--------------------------|------------------------|
A|---7--7--7--7--5--7--7--7-|-7--7--7--7--------5--7-|
E|--------------------------|-------------5/7--------|

______________________________________________________

G|------------------------|-----------------------|
D|------------------------|-------------------5---|
A|---7--7-7-7--5--7--7--7-|-7--7--7--7--5--7-----7|
E|------------------------|-----------------------|

G|--------------------------|-------------------x----|
D|--------------------------|------------------------|
A|---7--7--7--7--5--7--7--7-|-7--7--7--7--------5--7-|
E|--------------------------|-------------5/7--------|
 
Pre-Chorus
G|------------------------------|--------------------------------|  
D|------------------------------|--------------------------------|
A|------------------------------|--------------------------------|    
E|-5-5-5-5-5-5-5--3-3-3-3-3-3-3-|-7-7-7-7-7-7-7-7-7-7-7-7-7-7-7--|   

G|------------------------------|--------------------------------|  
D|------------------------------|--------------------------------|
A|------------------------------|--------------------------------|    
E|-5-5-5-5-5-5-5--3-3-3-3-3-3-3-|-7-7-7-7-7-7-7-7-7-7-7-7-7-7-7--|

Chorus (same as main riff)
G|-----------------------------|--------------------------------|
D|-----------------------------|--------------------------------| 
A|-----------------------------|--------------------------------|   
E|-3-3-3-3-3-3-3-3-3-3-3-3-3-3-|-0-0-0-0-0-0-0-0-0-0-0-0-0-0----|

G|-----------------------------|--------------------------------|
D|-----------------------------|--------------------------------| 
A|-----------------------------|--------------------------------|   
E|-3-3-3-3-3-3-3-3-3-3-3-3-3-3-|-0-0-0-0-0-0-0-0-0-0-0-0-0-0----|

G|-----------------------------|--------------------------------|
D|-----------------------------|--------------------------------| 
A|-----------------------------|--------------------------------|   
E|-3-3-3-3-3-3-3-3-3-3-3-3-3-3-|-0-0-0-0-0-0-0-0-0-0-0-0-0-0----|

G|-----------------------------|--------------------------------|
D|-----------------------------|--------------------------------| 
A|-----------------------------|--------------------------------|   
E|-3-3-3-3-3-3-3-3-3-3-3-3-3-3-|-0-0-0-0-0-0-0-0-0-0-0-0-0-0----|

2nd Verse
G|------------------------|-----------------------|
D|------------------------|-------------------5---|
A|---7--7-7-7--5--7--7--7-|-7--7--7--7--5--7-----7|
E|------------------------|-----------------------|

G|--------------------------|-------------------x----|
D|--------------------------|------------------------|
A|---7--7--7--7--5--7--7--7-|-7--7--7--7--------5--7-|
E|--------------------------|-------------5/7--------|

______________________________________________________

G|------------------------|-----------------------|
D|------------------------|-------------------5---|
A|---7--7-7-7--5--7--7--7-|-7--7--7--7--5--7-----7|
E|------------------------|-----------------------|

G|--------------------------|-------------------x----|
D|--------------------------|------------------------|
A|---7--7--7--7--5--7--7--7-|-7--7--7--7--------5--7-|
E|--------------------------|-------------5/7--------|
[ Tab from: http://www.guitartabs.cc/tabs/v/velvet_revolver/sucker_train_blues_btab.html ]
______________________________________________________

G|------------------------|-----------------------|
D|------------------------|-------------------5---|
A|---7--7-7-7--5--7--7--7-|-7--7--7--7--5--7-----7|
E|------------------------|-----------------------|

G|--------------------------|-------------------x----|
D|--------------------------|------------------------|
A|---7--7--7--7--5--7--7--7-|-7--7--7--7--------5--7-|
E|--------------------------|-------------5/7--------|

______________________________________________________

G|------------------------|-----------------------|
D|------------------------|-------------------5---|
A|---7--7-7-7--5--7--7--7-|-7--7--7--7--5--7-----7|
E|------------------------|-----------------------|

G|--------------------------|-------------------x----|
D|--------------------------|------------------------|
A|---7--7--7--7--5--7--7--7-|-7--7--7--7--------5--7-|
E|--------------------------|-------------5/7--------|

Pre-Chorus
G|------------------------------|--------------------------------|  
D|------------------------------|--------------------------------|
A|------------------------------|--------------------------------|    
E|-5-5-5-5-5-5-5--3-3-3-3-3-3-3-|-7-7-7-7-7-7-7-7-7-7-7-7-7-7-7--|   

G|------------------------------|--------------------------------|  
D|------------------------------|--------------------------------|
A|------------------------------|--------------------------------|    
E|-5-5-5-5-5-5-5--3-3-3-3-3-3-3-|-7-7-7-7-7-7-7-7-7-7-7-7-7-7-7--|

2nd Chorus
G|-----------------------------|--------------------------------|
D|-----------------------------|--------------------------------| 
A|-----------------------------|--------------------------------|   
E|-3-3-3-3-3-3-3-3-3-3-3-3-3-3-|-0-0-0-0-0-0-0-0-0-0-0-0-0-0----|

G|-----------------------------|--------------------------------|
D|-----------------------------|--------------------------------| 
A|-----------------------------|--------------------------------|   
E|-3-3-3-3-3-3-3-3-3-3-3-3-3-3-|-0-0-0-0-0-0-0-0-0-0-0-0-0-0----|

G|-----------------------------|--------------------------------|
D|-----------------------------|--------------------------------| 
A|-----------------------------|--------------------------------|   
E|-3-3-3-3-3-3-3-3-3-3-3-3-3-3-|-0-0-0-0-0-0-0-0-0-0-0-0-0-0----|

G|-----------------------------|--------------------------------|
D|-----------------------------|--------------------------------| 
A|-----------------------------|--------------------------------|   
E|-3-3-3-3-3-3-3-3-3-3-3-3-3-3-|-0-0-0-0-0-0-0-0-0-0-0-0-0-0----|

Post Chorus    
G|-----------------------------------------------------------------------------------------|
D|--7-7-7-7-7-7-7-7-7-7-7-7-7-7-7---5-5-5-5-5-5-5-5-5-5-5-5-5/9-9-9-9-9-9-9-9-9-9-9-9-9-9--| 
A|-----------------------------------------------------------------------------------------|   
E|-----------------------------------------------------------------------------------------|

G|-----------------------------------------------------------------------------------------|
D|--7-7-7-7-7-7-7-7-7-7-7-7-7-7-7---5-5-5-5-5-5-5-5-5-5-5-5-5/9-9-9-9-9-9-9-9-9-9-9-9-9-9--| 
A|-----------------------------------------------------------------------------------------|   
E|-----------------------------------------------------------------------------------------|

G|-----------------------------------------------------------------------------------------|
D|--7-7-7-7-7-7-7-7-7-7-7-7-7-7-7---5-5-5-5-5-5-5-5-5-5-5-5-5/9-9-9-9-9-9-9-9-9-9-9-9-9-9--| 
A|-----------------------------------------------------------------------------------------|   
E|-----------------------------------------------------------------------------------------|

G|-----------------------------------------------------------------------------------------|
D|--7-7-7-7-7-7-7-7-7-7-7-7-7-7-7---5-5-5-5-5-5-5-5-5-5-5-5-5------------------------------| 
A|-----------------------------------------------------------------------------------------|   
E|-------------------------------------------------------------0-0-0-0-0-0-0-0-0-0-0-0-0-0-|


During solo
G|---------------------------------------------------------------------------------------|
D|---------------------------------------------------------------------------------------| 
A|---------------------------------------------------------------------------------------|   
E|--0-0-0-0-0-0-0-0-0-0-0-0-0-0-0-0-0-0-0-0-0--3-3-3-3-3-3-3-3-3-3-3-3-3-3-3-3-3-3-3-3-3-|

G|---------------------------------------------------------------------------------------|
D|---------------------------------------------------------------------------------------| 
A|---------------------------------------------------------------------------------------|   
E|--0-0-0-0-0-0-0-0-0-0-0-0-0-0-0-0-0-0-0-0-0--3-3-3-3-3-3-3-3-3-3-3-3-3-3-3-3-3-3-3-3-3-|

G|---------------------------------------------------------------------------------------|
D|---------------------------------------------------------------------------------------| 
A|---------------------------------------------------------------------------------------|   
E|--0-0-0-0-0-0-0-0-0-0-0-0-0-0-0-0-0-0-0-0-0--3-3-3-3-3-3-3-3-3-3-3-3-3-3-3-3-3-3-3-3-3-|

G|------------------------------------------------------------------------------------|
D|------------------------------------------------------------------------------------| 
A|------------------------------------------------------------------------------------|   
E|--3/5-5-5-5-5-5----3-3-3-3-3-3-3-----7-7-7-7-7-7-7-7-7-7-7-7-7-7-7---7-7------------|


Rest during Post solo

3rd Chorus
G|-----------------------------|--------------------------------|
D|-----------------------------|--------------------------------| 
A|-----------------------------|--------------------------------|   
E|-3-3-3-3-3-3-3-3-3-3-3-3-3-3-|-0-0-0-0-0-0-0-0-0-0-0-0-0-0----|

G|-----------------------------|--------------------------------|
D|-----------------------------|--------------------------------| 
A|-----------------------------|--------------------------------|   
E|-3-3-3-3-3-3-3-3-3-3-3-3-3-3-|-0-0-0-0-0-0-0-0-0-0-0-0-0-0----|

G|-----------------------------|--------------------------------|
D|-----------------------------|--------------------------------| 
A|-----------------------------|--------------------------------|   
E|-3-3-3-3-3-3-3-3-3-3-3-3-3-3-|-0-0-0-0-0-0-0-0-0-0-0-0-0-0----|

G|-----------------------------|--------------------------------|
D|-----------------------------|--------------------------------| 
A|-----------------------------|--------------------------------|   
E|-3-3-3-3-3-3-3-3-3-3-3-3-3-3-|-0-0-0-0-0-0-0-0-0-0-0-0-0-0----|

G|-----------------------------|--------------------------------|
D|-----------------------------|--------------------------------| 
A|-----------------------------|--------------------------------|   
E|-3-3-3-3-3-3-3-3-3-3-3-3-3-3-|-0-0-0-0-0-0-0-0-0-0-0-0-0-0----|

G|-----------------------------|--------------------------------|
D|-----------------------------|--------------------------------| 
A|-----------------------------|--------------------------------|   
E|-3-3-3-3-3-3-3-3-3-3-3-3-3-3-|-0-0-0-0-0-0-0-0-0-0-0-0-0-0----|

Outro
G|----------|
D|----------|
A|----------|  
E|---3---0~-|

Enjoy. Questions, PM me.
Comments