Velvet Revolver - Spectacle Chords & Tabs

 

Spectacle Chords & Tabs

Velvet Revolver Chords & Tabs

Version: 1 Type: Bass Tab 0 ratings
1 star 2 stars 3 stars 4 stars 5 stars
comments

Spectacle Bass Tab

Band- Velvet Revolver
Album- Contraband
Song- Spectacle

Intro:
G|--------------------------------------------|
D|--------------------------------------------|
A|3-0-0-3-0-0-3-0-3-0-0-3-0-0-3-0-------------|
E|--------------------------------------------|

Verse:
G|--------------------------------------------|
D|--------------------------------------------|
A|3-0-0-3-0-0-3-0-3-0-0-3-0-0-3-0-------------|
E|--------------------------------------------|

G|--------------------------------------------|
D|--------------------------------------------|
A|--------------------------------------------|
E|3-3-3-3-3-3-3-3--1-1-1-1-1-1-1-1------------|

Chorus:
G|--------------------------------------------|
D|--------------------------------------------|
A|5555555555555555----------------------------|
E|----------------5555555555555555------------|

G|--------------------------------------------|
D|--------------------------------------------|
A|----------------3333333333333333------------|
E|1111111111111111----------------------------|

[ Tab from: http://www.guitartabs.cc/tabs/v/velvet_revolver/spectacle_btab.html ]
Bridge:
G|--------------------------------------------|
D|--------------------------------------------|
A|--------------------------------------------|
E|11111111-00000000-11111131-00000000---------|

G|--------------------------------------------|
D|--------------------------------------------|
A|--------33333333-55555555-77777777----------|
E|11111111------------------------------------|

Behind solo:
G|--------------------------------------------|
D|--------------------------------------------|
A|3-0-0-3-0-0-3-0-3-0-0-3-0-0-3-0-------------|
E|--------------------------------------------|
X4

G|--------------------------------------------|
D|--------------------------------------------| 
A|----------------3333333333333333------------|
E|1111111111111111----------------------------|




G|--------------------------------------------|
D|--------------------------------------------|
A|5555555555555555-7777777777777777-0---------|
E|--------------------------------------------|

Let the 0 ring

Order of song:
Intro x5
Verse x4
Chorus x1
Intro x1
Verse x4
Chorus x2
Bridge x1
Behind solo bit x1
Verse x4
Chorus x4
Intro x2
Comments