Velvet Revolver - Slither Chords & Tabs

 

Slither Chords & Tabs

Velvet Revolver Chords & Tabs

Version: 4 Type: Bass Tab 0 ratings
1 star 2 stars 3 stars 4 stars 5 stars
comments

Slither Bass Tab

Band - Velvet Revolver
Song - Slither

Tuning: Drop D

Intro:
|-----------------|-----------------|    |-----------------|
|o----------------|----------------o|    |-----------------|
|o--------8-8-8---|---------8-8-8-8o| x7 |---------8-8-8---|
|-0-0-0-0-------0-|-0-0-0-0---------|    |-0-0-0-0-------0-|
                                                       
|-----------------|-----------------|
|o----------------|----------------o|
|o----------------|----------------o| x4
|-0-3-4-0-6-7-0-10|-0-6-7-0-5-0-3-4-|

Verse:
|-----------------|-----------------|
|o----------------|----------------o|
|o----------------|----------------o| x8
|-0-3-4-0-6-7-0-10|-0-6-7-0-5-0-3-4-|

Chorus:
|-----------------|-----------------|-----------------|-----------------|
|-----------------|-----------------|-----------------|-----------------|
|-----------------|---------------0-|-3-----3-----3-3-|---333-3-3-5-3-0-|
|-0-----0-----0-0-|---0-0-----0-0---|-----------------|-----------------|

|-----------------|-----------------|-----------------|-----------------|
|-----------------|-----------------|-----------------|-----------------|
|-2-----2-----2-2-|---2-2-223-3-3-3-|-----------------|-------------0---|
|-----------------|-----------------|-0-----0-----0-0-|---0-0---0-0-----|

Interlude:
|-----------------|-----------------|
|o----------------|----------------o|
|o----------------|----------------o| x4
|-0-3-4-0-6-7-0-10|-0-6-7-0-5-0-3-4-|

Verse:
|-----------------|-----------------|
|o----------------|----------------o|
|o----------------|----------------o| x8
|-0-3-4-0-6-7-0-10|-0-6-7-0-5-0-3-4-|

Chorus: (x2)
|-----------------|-----------------|-----------------|-----------------|
|-----------------|-----------------|-----------------|-----------------|
|-----------------|---------------0-|-3-----3-----3-3-|---333-3-3-5-3-0-|
|-0-----0-----0-0-|---0-0-----0-0---|-----------------|-----------------|

|-----------------|-----------------|-----------------|-----------------|
|-----------------|-----------------|-----------------|-----------------|
|-2-----2-----2-2-|---2-2-223-3-3-3-|-----------------|-------------0---|
|-----------------|-----------------|-0-----0-----0-0-|---0-0---0-0-----|
[ Tab from: http://www.guitartabs.cc/tabs/v/velvet_revolver/slither_btab_ver_4.html ]
Interlude:
|-----------------|-----------------|    |-----------------|
|o----------------|----------------o|    |-----------------|
|o--------8-8-8---|---------8-8-8-8o| x3 |---------8-8-8---|
|-0-0-0-0-------0-|-0-0-0-0---------|    |-0-0-0-0-------0-|
                                                       
Solo
|-----------------|-----------------|-----------------|-----------------|
|-----------------|-----------------|-----------------|-----------------|
|-5-5-5---5-5-5-5-|---5-5---5-5-0-2-|-3---3---3-3-3-3-|---3-3---3-5-3-0-|
|-----------------|-----------------|-----------------|-----------------|

|-----------------|-----------------|-----------------|-----------------|
|-----------------|-----------------|-----------------|-----------------|
|-2-2-2---2-2-2-2-|-2-2---2-3-3-333-|-----------------|---5-3-0-5-3-2---|
|-----------------|-----------------|-0-0-0---0-0-0---|-----------------|

|-----------------|-----------------|-----------------|-----------------|
|-----------------|-----------------|-----------------|-------023-2-0---|
|-----------------|---------------2-|-3---3-3---3-3---|-3-3-3---------3-|
|-0---0-0---0-0-0-|---0-0-0---0-0---|-----------------|-----------------|

|-----------------|-----------------|-----------------|-----------------|
|-----------------|-----------------|-----------------|-----------------|
|-2---2---2-2-2-2-|---2-2---3-3-333-|-5---5---5-5-----|---8-8---10101212|
|-----------------|-----------------|-------------0-0-|-0---------------|

Verse:
|--------------------|-----------------|
|o-------------------|----------------o|
|o-------------------|----------------o| x3
|-0-3-4-0-6-7-0-10---|-0-6-7-0-5-0-3-4-|

|--------------------|-----------------|
|--------------------|-----------------|
|--------------------|-----------------|
|-0-10-12-0-9-10-0-7-|-0-6-7-0-5-0-3-4-|

Chorus: (x2)
|-----------------|-----------------|-----------------|-----------------|
|-----------------|-----------------|-----------------|-----------------|
|-----------------|---------------0-|-3-----3-----3-3-|---333-3-3-5-3-0-|
|-0-----0-----0-0-|---0-0-----0-0---|-----------------|-----------------|

|-----------------|-----------------|-----------------|-----------------|
|-----------------|-----------------|-----------------|-----------------|
|-2-----2-----2-2-|---2-2-223-3-3-3-|-----------------|-------------0---|
|-----------------|-----------------|-0-----0-----0-0-|---0-0---0-0-----|

Outro
|-----------------|-----------------|    |--------------------|
|o----------------|----------------o|    |--------------------|
|o----------------|----------------o| x3 |--------------------|
|-0-3-4-0-6-7-0-10|-0-6-7-0-5-0-3-4-|    |-0-10-12-0-9-10-0-7-|

|-----------------|---|
|-----------------|---|
|-----------------|---|
|-0-6-7-0-5-0-3-4-|-0-|

End.
Comments