Velvet Revolver - Slither Chords & Tabs

 

Slither Chords & Tabs

Velvet Revolver Chords & Tabs

Version: 3 Type: Bass Tab 0 ratings
1 star 2 stars 3 stars 4 stars 5 stars
comments

Slither Bass Tab

   
-------------------------------------------------------------------------------
			     Slither - Velvet Revolver
-------------------------------------------------------------------------------

Note: This isnt entirely correct, but it sounds more or less the same, and it's
      simpler to play than the other tabs,you can add some notes in the chorus, 
      and in the riff for the solo. 

Tuning:I'm not sure what tuning it is, I tuned it by listening to the song.

G|---INTRO-------------------------------------------------------------------|
D|---------------------------------------------------------------------------|
A|---------------------------------------------------------------------------|
E|--0000-333-00000-3333-(repeat)---------------------------------------------|

G|---verse-------------------------------------------------------------------|
D|---------------------------------------------------------------------------|
A|--------------5-0----------------------------------------------------------|
E|--03h5-03h6-0------6-0-5-0-3/4---------------------------------------------|
[ Tab from: http://www.guitartabs.cc/tabs/v/velvet_revolver/slither_btab_ver_3.html ]
G|---CHORUS------------------------------------------------------------------|
D|---------------------------------------------------------------------------|
A|------5-4------------------------------------------------------------------|
E|--0---------0--------------------------------------------------------------|

G|---you play this part almost at the ending and before a chorus,listen to the song to find it.
D|---------------------------------------------------------------------------|
A|------5h7----4h5-----------------------------------------------------------|
E|---0------0------0-7-5-7-0-5-0-3/4-0---------------------------------------|

G|---SOLO-RIFF---------------------------------------------------------------|
D|---------------------------------------------------------------------------|
A|---7777777777-555555555-44444444444----------------------------------------|
E|---------------------------------------------------------------------------|

Note: the solo riff is not complete, you have to add some notes, listen to the song and find
      them for yourself, have fun.


| /  slide up
| \  slide down
| h  hammer-on
| p  pull-off
| ~  vibrato
| +  harmonic
| x  Mute note
===============================================================================
Comments