Velvet Revolver - Set Me Free Chords & Tabs

 

Set Me Free Chords & Tabs

Velvet Revolver Chords & Tabs

Version: 2 Type: Tab 0 ratings
1 star 2 stars 3 stars 4 stars 5 stars
comments

Set Me Free Tab

E|---------------------|
B|---------------------|
G|--5-6--------8P7-5~~-|
D|------5-6-7----------|
A|---------------------|
E|---------------------|
[ Tab from: http://www.guitartabs.cc/tabs/v/velvet_revolver/set_me_free_tab_ver_2.html ]
E|------------------------------------------------------|
B|------------------------------------------------------|
G|-2-2---5-5---6-6--------------------------------------|
D|-2-2---5-5---6-6---5-5---6-6---7-7--------------------|
A|-0-0---3-3---4-4---5-5---6-6---7-7----5B(7)R(5)--3--0-|
E|-------------------3-3---4-4---5-5--------------------|

E|-------------------------|
B|-3-3---------------------|
G|-2-2---3-3---5-5---------|
D|-0-0---3-3---5-5---5-5---|
A|-0-0---1-1---3-3---5-5---|
E|-------------------3-3---|

E|-------------------------|
B|-3-3---------------------|
G|-2-2---3-3---------------|
D|-0-0---3-3-----5-5-------|
A|-0-0---1-1-----5-5-------|
E|---------------3-3-------|

THIS IS WHAT I HAVE MADE OF THE SONG, IT SOUNDS RIGHT BUT COMMENTS AND CORRECTIONS ARE WELCOME
Comments