Velvet Revolver - Set Me Free Chords & Tabs

 

Set Me Free Chords & Tabs

Velvet Revolver Chords & Tabs

Version: 2 Type: Bass Tab 0 ratings
1 star 2 stars 3 stars 4 stars 5 stars
comments

Set Me Free Bass Tab

Figure out the structure yerself, its not that hard.

 Intro
|-----------------------|----
|-----------------------|----
|-s12--s12---s12---s12--|----
|-----------------------|----

.        |Main Riff
---------|----------------------------------|
---------|----------------------------------|
--3h4h5--|-0---0-3-3-4-4-------------6p5p4--|
---------|---------------3-3-4-4-5-5--------|

 Chorus
|----------------------------------------------------|
|----------------------------------------------------|
|--5-5-5-5-5-5---------------------------------------|
|--------------6-6-6-6-6-6--8-8-8-8-8-8--3-3-3-2-3-5-|
[ Tab from: http://www.guitartabs.cc/tabs/v/velvet_revolver/set_me_free_btab_ver_2.html ]
|----------------------------------------------------|
|----------------------------------------------------|
|--5-5-5-5-5-5--------------8-8-8-8-8-8-8-8-8---7-7-7|
|--------------6-6-6-6-6-6---------------------------|

 Middle
|------------------------------------------|
|------------------------------------------|
|------------------------------------------|
|-1-1-1-1--0-0-0-0--3-3-3-3-3-3-3-3-0--1---|

  (last time:)
|------------------------------------------|
|------------------------------------------|
|------------------------------------------|
|-1-1-1-1--0-0-0-0--3s5-5-5-5-5-5-5-5------|

 Solo
|------------------|
|------------------|
|-0-0-0-0-0-0-6p5--|
|------------------|
   (last time:)
|------------------------------|
|------------------------------|
|-0-0-0-0-0-0-6p5--0--3--5--7--|
|------------------------------|

  End
|----------------------------------|
|----------------------------------|
|----------------------------1--1--|
|-1---1-0-0-1-1-0-0-1-1-0-0--------|

  End on A|---0-------------|
Comments