Velvet Revolver - Money Chords & Tabs

 

Money Chords & Tabs

Velvet Revolver Chords & Tabs

Version: 2 Type: Tab 0 ratings
1 star 2 stars 3 stars 4 stars 5 stars
comments

Money Tab

Song: Money
Artist: Velvet Revolver (Pink Floyd)
Tabbed by: Matt Reed
Email: matttheman7@hotmail.com

Tuning:EADGBE

This is a pretty easy song once you get a hang of it. The timing in this song is
amazing!I think it is in 7/4 time. I've not seen the movie but I've heard this
version before and Velvet Revolver do a good job of it. I only have the verses
so if anyone has the rest, if they could e-mail me, I'd appreciate it.
[ Tab from: http://www.guitartabs.cc/tabs/v/velvet_revolver/money_tab_ver_2.html ]
e|--------------------------------------------------------------------------|
B|--------------------------------------------------------------------------|
G|---4----------------------------------------------------------------------|
D|-----4--------0-----------------------------------------------------------|
A|-2-----2--0-2---2---------------------------------------------------------|
E|---------2----------------------------------------------------------------|

repeat many times until the first verse

repeat 4 times in the verse except end on the last 0 and go to this riff:

e|--------------------------------------------------------------------------|
B|--------------------------------------------------------------------------|
G|--------------------------------------------------------------------------|
D|-4-4-4-------4-3-2-----------0--------------------------------------------|
A|-------4---0-------2-----0-2---2------------------------------------------|
E|---------2-----------0-3--------------------------------------------------|

That's pretty much all the verses and a bit of the solo. 
Enjoy.
=============================================================================
Comments