Velvet Revolver - Illegal I Song Chords & Tabs

 

Illegal I Song Chords & Tabs

Velvet Revolver Chords & Tabs

Version: 1 Type: Bass Tab 0 ratings
1 star 2 stars 3 stars 4 stars 5 stars
comments

Illegal I Song Bass Tab

   
Velvet Revolver
Illegal I song
Tuning E, A, D, G.
Bassist:Duff McKagan.
Tabber: Duffer

Intro:
G------------------------------------------------------------------------|
D------------------------------------------------------------------------|
A---------------------------------------4--------------------------------|
E--3-3-3-2-4-3----6-4----3-3-3-2-4-3--------4----------------------------|


G------------------------------------------------------------------------|
D------------------------------------------------------------------------|
A------------------------------------------------------------------------|
E--3-3-3-2-4-3----6-4----3-3-3-2-4-3-------------------------------------|


G------------------------------------------------------------------------|
D------------------------------------------------------------------------|
A---------------------------------------4--------------------------------|
E--3-3-3-2-4-3----6-4----3-3-3-2-4-3--------4----------------------------|


G------------------------------------------------------------------------|
D------------------------------------------------------------------------|
A------------------------------------------------------------------------|
E--3-3-3-2-4-3----6-4----3-3-3-2-4-3-------------------------------------|

Verse
G------------------------------------------------------------------------|
D------------------------------------------------------------------------|
A------------------------------------------------------------------------|
E--3-3-3-2-4-3---3-3-3-2-4-3---3-3-3-2-4-3---3-3-3-2-4-3-----------------|
One fine day...I'll settle down...When you bloody me...I ran aground

G------------------------------------------------------------------------|
D------------------------------------------------------------------------|
A------------------------------------------------------------------------|
E--3-3-3-2-4-3---3-3-3-2-4-3---3-3-3-2-4-3---3-3-3-2-4-3-----------------|
With my broken face...And fisticuff...*** the rest and...All their stuff

Pre-chorus
G------------------------------------------------------------------------|
D------------------------------------------------------------------------|
A---------------------------------------4--------------------------------|
E--3-3-3-2-4-3----6-4----3-3-3-2-4-3--------4----------------------------|
I...don't...anymore........


G------------------------------------------------------------------------|
D------------------------------------------------------------------------|
A------------------------------------------------------------------------|
E--3-3-3-2-4-3----6-4----3-3-3-2-4-3-------------------------------------|
I...don't...anymore.......

Chorus
G------------------------------------------------------------------------|
D------------------------------------------------------------------------|
A------------------------------------------------------------------------|
E--7-7-7-7-7-7-7-7-6-6-6-6-6-6-6-6---------------------------------------|
Just look and you'll, see me........


G------------------------------------------------------------------------|
D------------------------------------------------------------------------|
A------------------------------------------------------------------------|
E--4-4-4-4-4-4-4-4-4-4-4-4-4-4-4-4---/-----------------------------------|
Lying there...lying there

G------------------------------------------------------------------------|
D------------------------------------------------------------------------|
A------------------------------------------------------------------------|
E--7-7-7-7-7-7-7-7-6-6-6-6-6-6-6-6---------------------------------------|
Just look and you'll, see me........

G------------------------------------------------------------------------|
D------------------------------------------------------------------------|
A------------------------------------------------------------------------|
E--4-4-4-4-4-4-4-4-4-4-4-4-4-4-4-4---------------------------------------|
Lying there...lying there

Pre-Verse
G------------------------------------------------------------------------|
D------------------------------------------------------------------------|
A---------------------------------------4--------------------------------|
E--3-3-3-2-4-3----6-4----3-3-3-2-4-3--------4----------------------------|


G------------------------------------------------------------------------|
D------------------------------------------------------------------------|
A------------------------------------------------------------------------|
E--3-3-3-2-4-3----6-4----3-3-3-2-4-3-------------------------------------|

Verse
G------------------------------------------------------------------------|
D------------------------------------------------------------------------|
A------------------------------------------------------------------------|
E--3-3-3-2-4-3---3-3-3-2-4-3---3-3-3-2-4-3---3-3-3-2-4-3-----------------|
Another way...A battle ground...A ready teller whore...Who makes no sound

G------------------------------------------------------------------------|
D------------------------------------------------------------------------|
A------------------------------------------------------------------------|
E--3-3-3-2-4-3---3-3-3-2-4-3---3-3-3-2-4-3---3-3-3-2-4-3-----------------|
Keep the money bitch...Keep the stuff...Fly around the world...And keep it up

Pre-chorus
G------------------------------------------------------------------------|
D------------------------------------------------------------------------|
A---------------------------------------4--------------------------------|
E--3-3-3-2-4-3----6-4----3-3-3-2-4-3--------4----------------------------|
I...don't...anymore.......


G------------------------------------------------------------------------|
D------------------------------------------------------------------------|
A------------------------------------------------------------------------|
E--3-3-3-2-4-3----6-4----3-3-3-2-4-3-------------------------------------|
I...don't...anymore.......

Chorus
G------------------------------------------------------------------------|
D------------------------------------------------------------------------|
A------------------------------------------------------------------------|
E--7-7-7-7-7-7-7-7-6-6-6-6-6-6-6-6---------------------------------------|
Just look and you'll, see me........
[ Tab from: http://www.guitartabs.cc/tabs/v/velvet_revolver/illegal_i_song_btab.html ]
G------------------------------------------------------------------------|
D------------------------------------------------------------------------|
A------------------------------------------------------------------------|
E--4-4-4-4-4-4-4-4-4-4-4-4-4-4-4-4---/-----------------------------------|
Lying there...lying there

G------------------------------------------------------------------------|
D------------------------------------------------------------------------|
A------------------------------------------------------------------------|
E--7-7-7-7-7-7-7-7-6-6-6-6-6-6-6-6---------------------------------------|
Just look and you'll, see me........

G------------------------------------------------------------------------|
D------------------------------------------------------------------------|
A------------------------------------------------------------------------|
E--4-4-4-4-4-4-4-4-4-4-4-4-4-4-4-4---------------------------------------|
Lying there...lying there

G------------------------------------------------------------------------|
D------------------------------------------------------------------------|
A------------------------------------------------------------------------|
E--3-3-3-2-4-3---3-3-3-2-4-3---3-3-3-2-4-3---3-3-3-2-4-3-----------------|

Bridge
G------------------------------------------------------------------------|
D------------------------------------------------------------------------|
A----------------------------------------4-------------------------------|
E--3-3-3-2-4-3----6-4----3-3-3-2-4-3--------4----------------------------|


G------------------------------------------------------------------------|
D------------------------------------------------------------------------|
A------------------------------------------------------------------------|
E--3-3-3-2-4-3----6-4----3-3-3-2-4-3-------------------------------------|

G------------------------------------------------------------------------|
D------------------------------------------------------------------------|
A------------------------------------------------------------------------|
E--3-3-3-4-3---3-3-------------------------------------------------------|
It's killing time...all day Sunday............	(Repeat 16x)

Pre-chorus
G------------------------------------------------------------------------|
D------------------------------------------------------------------------|
A---------------------------------------4--------------------------------|
E--3-3-3-2-4-3----6-4----3-3-3-2-4-3--------4----------------------------|


G------------------------------------------------------------------------|
D------------------------------------------------------------------------|
A------------------------------------------------------------------------|
E--3-3-3-2-4-3----6-4----3-3-3-2-4----3--3--3-----3----------------------|

Chorus
G------------------------------------------------------------------------|
D------------------------------------------------------------------------|
A------------------------------------------------------------------------|
E--7-7-7-7-7-7-7-7-6-6-6-6-6-6-6-6---------------------------------------|
Just look and you'll, see me........

G------------------------------------------------------------------------|
D------------------------------------------------------------------------|
A------------------------------------------------------------------------|
E--4-4-4-4-4-4-4-4-4-4-4-4-4-4-4-4---/-----------------------------------|
Lying there...lying there

G------------------------------------------------------------------------|
D------------------------------------------------------------------------|
A------------------------------------------------------------------------|
E--7-7-7-7-7-7-7-7-6-6-6-6-6-6-6-6---------------------------------------|
Just look and you'll, see me........

G------------------------------------------------------------------------|
D------------------------------------------------------------------------|
A------------------------------------------------------------------------|
E--4-4-4-4-4-4-4-4-4-4-4-4-4-4-4-4---------------------------------------|
Lying there...lying there

G------------------------------------------------------------------------|
D------------------------------------------------------------------------|
A------------------------------------------------------------------------|
E--7-7-7-7-7-7-7-7-6-6-6-6-6-6-6-6---------------------------------------|
Just look and you'll, see me........

G------------------------------------------------------------------------|
D------------------------------------------------------------------------|
A------------------------------------------------------------------------|
E--4-4-4-4-4-4-4-4-4-4-4-4-4-4-4-4---/-----------------------------------|
Lying there...lying there

G------------------------------------------------------------------------|
D------------------------------------------------------------------------|
A------------------------------------------------------------------------|
E--7-7-7-7-7-7-7-7-6-6-6-6-6-6-6-6---------------------------------------|
Just look and you'll, see me........

G------------------------------------------------------------------------|
D------------------------------------------------------------------------|
A------------------------------------------------------------------------|
E--4-4-4-4-4-4-4-4-4-4-4-4-4-4-4-4---------------------------------------|
Lying there...lying there

G------------------------------------------------------------------------|
D------------------------------------------------------------------------|
A---------------------------------------4--------------------------------|
E--3-3-3-2-4-3----6-4----3-3-3-2-4-3--------4----------------------------|
Just look and you'll........Just look and you'll........

G------------------------------------------------------------------------|
D------------------------------------------------------------------------|
A------------------------------------------------------------------------|
E--3-3-3-2-4-3----6-4----3-3-3-2-4-3-------------------------------------|
Just look and you'll........Just look and you'll........

G------------------------------------------------------------------------|
D------------------------------------------------------------------------|
A---------------------------------------4--------------------------------|
E--3-3-3-2-4-3----6-4----3-3-3-2-4-3--------4----------------------------|
Just look and you'll........Just look and you'll........

G------------------------------------------------------------------------|
D------------------------------------------------------------------------|
A------------------------------------------------------------------------|
E--3-3-3-2-4-3----6-4----3-3-3-2-4----3--3--3-----3----------------------|
Just look and you'll........

End.
And that is all there is to it. please rate. duff rules.
Comments