Velvet Revolver - Fall To Pieces Chords & Tabs

 

Fall To Pieces Chords & Tabs

Velvet Revolver Chords & Tabs

Version: 4 Type: Tab 0 ratings
1 star 2 stars 3 stars 4 stars 5 stars
comments

Fall To Pieces Tab

   
----------------------------------------------------------------------------
			     Fall to pieces - Velvet Revolver
----------------------------------------------------------------------------
Tabbed by: theFox
Email:decor79@t-online.de

Tuning:
C#    446664
C#4   446674
C#m4  446644     name?
H4    224452
F#    244322
G#    466544

Verse 1:
Guitar 1 (classic)
e|-------------------------------------------------------------------------|
B|-------------------------------------------------------------------------|
G|-----------------------------------------------------4--3--1--4----------|
D|-------------------------------------------------------------------6-p4-|
A|-------------------------------------------------------------------------|
E|-------------------------------------------------------------------------|
Guitar 2 (classic)
e|-------------------------------------------------------------------------|
B|-7-\-6---------------------6----------------------------4----------------|
G|-------6---------------------6----------------------------4--------------|
D|---------6--4-\-3--------------6--4-\-3---4---4-------------4---4--------|
A|------------------4------4--------------4---2-----------------2---4------|
E|--------------------4--------------------------------2-------------------|
			   It's been a long year     Since you've been gone
			   I've been alone here        I've grown old
                           I fall to pieces            I'm falling
                           Fell to pieces and I'm still falling

Chorus:
Guitar (distortion)
   G#             C#4     G#		   G#		   F#
e|-4--------------4-------4--------------4---------------2-----------------|
B|-4--------------6-p-4---4--------------4---------------2-----------------|
G|-5--------------6-------5--------------5---------------3-----------------|
D|-6--------------6-------6--------------6---------------4-----------------|
A|-6--------------4-------6--------------6---------------4-----------------|
E|-4--------------4-------4--------------4---------------2-----------------|
  Every time I'm falling down           All alone I fall to pieces


Guitar 1
e|-4---------------6-------------------------2-------------------2---------|
B|-6---------------7-------------------------5-------------------2---------|
G|-6---------------6-------------------------4-------------------3---------|
D|-6---------------6-------------------------4-------------------4---------|
A|-4---------------4-------------------------2-------------------4---------|
E|-4---------------4-------------------------2-------------------2---------|
Guitar 2            |
e|-14-13-----------14-13---------------------12-11-------------------------|
B|-------14--------------14------------------------12----------------------|
G|----------13-11-----------13-11\10------------------11-9\8---------------|
D|-----------------------------------11----------------------9------8h9\11-|
A|----------------------------------------------------------------9--------|
E|-------------------------------------------------------------------------|

Verse 2:
I keep a journal of memories
I'm feeling lonely, I can't breathe
I fall to pieces, I'm falling
Fell to pieces and I'm still falling

Chorus:

[ Tab from: http://www.guitartabs.cc/tabs/v/velvet_revolver/fall_to_pieces_tab_ver_4.html ]
   F#					      C#m4
e|-2-------------------------------------------4---------------------------|
B|-2-------------------------------------------4---------------------------|
G|-3-------------------------------------------6---------------------------|
D|-4-------------------------------------------6---------------------------|
A|-4-------------------------------------------4---------------------------|
E|-2-------------------------------------------4---------------------------|
  All the years I've tried                   With more to go
  Will i find u                              can i find u

   F#                                       G#
e|-2------------------------------------------4----------------------------|
B|-2------------------------------------------4----------------------------|
G|-3------------------------------------------5----------------------------|
D|-4------------------------------------------6----------------------------|
A|-4------------------------------------------6----------------------------|
E|-2------------------------------------------4----------------------------|
   Will the memories die                      I'm waiting
   We're falling down                         I'm falling

Solo
    |  |  |       (13)				    |    |          |  |
e|--13-13-13-13-13----13-\-11---9-11-9----9(11)-/-13---1614/13---13-13---|
B|-------------------------------------11--------------------------------14|
G|-------------------------------------------------------------------------|
D|-------------------------------------------------------------------------|
A|-------------------------------------------------------------------------|
E|-------------------------------------------------------------------------|

e|-------------------------------------|---|------------------------9----13|
B|-12h14p12----12---11h12p11----1111h12--11---14p11--14-11\9-9h11---11---|
G|----------13---------------13--------------------------------------------|
D|-------------------------------------------------------------------------|
A|-------------------------------------------------------------------------|
E|-------------------------------------------------------------------------|

		       |              |  |      |  |  ||         ||       |
e|-11-9h6p9-6h9/11---16---14\13/14--13-13-----13-13-13---13p11-11-1/14/16|
B|------------------------------------------14-----------------------------|
G|-------------------------------------------------------------------------|
D|-------------------------------------------------------------------------|
A|-------------------------------------------------------------------------|
E|-------------------------------------------------------------------------|

 (distortion)
e|-4--------------4-------4--------------4---------------2-----------------|
B|-4--------------6-p-4---4--------------4---------------2-----------------|
G|-5--------------6-------5--------------5---------------3-----------------|
D|-6--------------6-------6--------------6---------------4-----------------|
A|-6--------------4-------6--------------6---------------4-----------------|
E|-4--------------4-------4--------------4---------------2-----------------|
  Every time I'm falling down           All alone I fall to pieces


Guitar 1 (distortion)
e|-4--------------4-------4--------------4---------------2-----------------|
B|-4--------------6-p-4---4--------------4---------------2-----------------|
G|-5--------------6-------5--------------5---------------3-----------------|
D|-6--------------6-------6--------------6---------------4-----------------|
A|-6--------------4-------6--------------6---------------4-----------------|
E|-4--------------4-------4--------------4---------------2-----------------|
Guitar 2            |
e|-14-13-----------14-13---------------------12-11-------------------------|
B|-------14--------------14------------------------12----------------------|
G|----------13-11-----------13-11\10------------------11-9\8---------------|
D|-----------------------------------11----------------------9------8h9\11-|
A|--------------------------------------11------------------------9--------|
E|-------------------------------------------------------------------------|
  Every time I'm falling down           All alone I fall to pieces

| /  slide up
| \  slide down
| h  hammer-on
| p  pull-off
| ~  vibrato
| +  harmonic
| x  Mute note
===========================================================================
Comments