Velvet Revolver - Fall To Pieces Chords & Tabs

 

Fall To Pieces Chords & Tabs

Velvet Revolver Chords & Tabs

Version: 3 Type: Tab 0 ratings
1 star 2 stars 3 stars 4 stars 5 stars
comments

Fall To Pieces Tab

Band - Velvet Revolver
Song - Fall To Pieces

Key:
b - bend
r - -release
h - hammer
P - pull-off
~ - vibrate
         

Intro:
eb|-3-2----------2-3|2----------------|---0------------|
Bb|-3---3--------3--|--3--------------|-1---1----------|
Gb|-2-----2-0----2--|----2-0----------|-------0-2-0--0-|
Db|-0---------4--0--|--------4h5-0h5--|----------------|
Ab|-----------------|-----------------|----------------|
Eb|-----------------|-----------------|----------------|

eb|-------3--2-|
Bb|-------3--3-|
Gb|-0-----0--0-|
Db|-0----------|
Ab|------------|
Eb|------------|

Verse:
eb|-3-2----------2-3|2----------------|---0------------|
Bb|-3---3--------3--|--3--------------|-1---1----------|
Gb|-2-----2-0----2--|----2-0----------|-------0-2-0--0-|
Db|-0---------4--0--|--------4h5-0h5--|----------------|
Ab|-----------------|-----------------|----------------|
Eb|-----------------|-----------------|----------------|

eb|-------3--2-|
Bb|-------3--3-|
Gb|-0-----0--0-|
Db|-0----------|
Ab|------------|
Eb|------------|

Chorus:
eb|-----------------|-----------------|
Bb|-----------------|-----------------|
Gb|--------------7--|-----------------|
Db|-7---7----5---7--|-7---7----5---7--|
Ab|-7---7----5---5--|-7---7----5---7--|
Eb|-5---5----3------|-5---5----3---5--|

Interlude:          (Guitar 1)
eb|-/15-14-------------/15---14-----------------|
Bb|--------15-------------------15--------------|
Gb|-----------14-12-11-------------14-12-11-----|
Db|-----------------------------------------12--|
Ab|---------------------------------------------|
Eb|---------------------------------------------|

eb|-/13-12-------------------------------|
Bb|--------13----------------------------|
Gb|-----------12-------12----------------|
Db|--------------15\14---------9-10-12---|
Ab|-------------------------10-----------| 
Eb|--------------------------------------| 

eb|-/15-14-------------/15---14-----------------|
Bb|--------15-------------------15--------------|
Gb|-----------14-12-11-------------14-12-11-----|
Db|-----------------------------------------12--|
Ab|---------------------------------------------|
Eb|---------------------------------------------|

		(Guitar 2)
eb|-----------------|-----------------|
Bb|-----------------|-----------------|
Gb|-7---7----5------|-7---7----5------|
Db|-7---7----5---5--|-7---7----5---5--|
Ab|-5---5----3---5--|-5---5----3---5--|
Eb|--------------3--|--------------3--|

Verse:
eb|-3-2----------2-3|2----------------|---0------------|
Bb|-3---3--------3--|--3--------------|-1---1----------|
Gb|-2-----2-0----2--|----2-0----------|-------0-2-0--0-|
Db|-0---------4--0--|--------4h5-0h5--|----------------|
Ab|-----------------|-----------------|----------------|
Eb|-----------------|-----------------|----------------|

eb|-------3--2-|
Bb|-------3--3-|
Gb|-0-----0--0-|
Db|-0----------|
Ab|------------|
Eb|------------|

Chorus:
eb|-----------------|-----------------|
Bb|-----------------|-----------------|
Gb|--------------7--|-----------------|
Db|-7---7----5---7--|-7---7----5---7--|
Ab|-7---7----5---5--|-7---7----5---7--| 
Eb|-5---5----3------|-5---5----3---5--|

eb|-----------------|-----------------|
Bb|-----------------|-----------------|
Gb|-7---7----5------|-7---7----5------|
Db|-7---7----5---5--|-7---7----5---5--| x2
Ab|-5---5----3---5--|-5---5----3---5--|
Eb|--------------3--|--------------3--|


Bridge: (clean)
eb|---------0-------------0---------|---------0-------------0---------|
Bb|-0---3-----3---0---3-------3-2-3-|-0---3-----3---0---3-------3-2-3-|
Gb|---4---4---------4---4---4-------|---2---2---------2---2---2-------|
Db|---------------------------------|---------------------------------| x2
Ab|---------------------------------|---------------------------------|
Eb|---------------------------------|---------------------------------|
[ Tab from: http://www.guitartabs.cc/tabs/v/velvet_revolver/fall_to_pieces_tab_ver_3.html ]
eb|---------0-------------0---------|---------------------------------|
Bb|-0---3-----3---0---3-------3-2-3-|-----2---3-2---------2---3-2---2-|
Gb|---4---4---------4---4---4-------|---2---2-----2-----2---2-----2---|
Db|---------------------------------|-2-------------2-----------------|
Ab|---------------------------------|---------------------------------|
Eb|---------------------------------|---------------------------------|

eb|----0-------0-------------|----0-------0-------------|
Bb|-1----0--1----0---1-0-----|-1----0--1----0---1-0-----|
Gb|----------------------2-0-|----------------------2-0-|
Db|--------------------------|--------------------------|
Ab|--------------------------|--------------------------|
Eb|--------------------------|--------------------------|


Solo:
eb|------------------------------------------------------------------------|
Bb|-17b19------r17b19---17b19--17b19--17b19r17b19--15-17----15----17b19\---|
Gb|-----^hold--------------------------------------------16----------------|
Db|------------------------------------------------------------------------|
Ab|------------------------------------------------------------------------|
Eb|------------------------------------------------------------------------|
--
eb|-15b17----15-14-15------------------------------------------------------|
Bb|--------------------17b19--17b19--15---13h15p13-12-13----12h13p12-10-12-|
Gb|------------------------------------------------------------------------|
Db|------------------------------------------------------------------------|
Ab|------------------------------------------------------------------------|
Eb|------------------------------------------------------------------------|

eb|-----------------10-10-----10---------------------------------------------|
Bb|-10h12-10b12--10----12--12----10b12r10---------15----17b19-17-15-17----15-|
Gb|-----------------------------------------14-16----16----------------16----|
Db|--------------------------------------------------------------------------|
Ab|--------------------------------------------------------------------------|
Eb|--------------------------------------------------------------------------|

eb|---------------------------------------------------------------------|
Bb|----15-----20b22r20b22--20-19-20-19b20-19-------------15----17b19r17-|
Gb|-16----16---------------------------------19--19---16----16----------|
Db|--------------------------------------------19-----------------------|
Ab|---------------------------------------------------------------------|
Eb|---------------------------------------------------------------------|
                                                                 
eb|---------------------------------/15~~15~~-/17~~-17~~|
Bb|-15b17-17~-15b17-17~-15b17-17-15---------------------|
Gb|-----------------------------------------------------|
Db|-----------------------------------------------------|
Ab|-----------------------------------------------------|
Eb|-----------------------------------------------------|

eb|-\15-14-15-14b15-----r14--------14\12--10-12----10--|
Bb|----------------^hold------------------------12-----|
Gb|----------------------------------------------------|
Db|----------------------------------------------------|
Ab|----------------------------------------------------|
Eb|----------------------------------------------------|

Chorus:              (Guitar 1)
eb|-/15-14-------------/15---14-----------------|
Bb|--------15-------------------15--------------|
Gb|-----------14-12-11-------------14-12-11-----|
Db|-----------------------------------------12--|
Ab|---------------------------------------------|
Eb|---------------------------------------------|

eb|-/13-12-------------------------------|
Bb|--------13----------------------------|
Gb|-----------12-------12----------------|
Db|--------------15\14---------9-10-12---|
Ab|-------------------------10-----------| 
Eb|--------------------------------------| 

eb|-/15-14-------------/15---14-----------------|
Bb|--------15-------------------15--------------|
Gb|-----------14-12-11-------------14-12-11-----|
Db|-----------------------------------------12--|
Ab|---------------------------------------------|
Eb|---------------------------------------------|

		(Guitar 2)
eb|-----------------|-----------------|
Bb|-----------------|-----------------|
Gb|-7---7----5------|-7---7----5------|
Db|-7---7----5---5--|-7---7----5---5--|
Ab|-5---5----3---5--|-5---5----3---5--|
Eb|--------------3--|--------------3--|

End.
Comments