Velvet Revolver - Embrace Chords & Tabs

 

Embrace Chords & Tabs

Velvet Revolver Chords & Tabs

Version: 3 Type: Tab 0 ratings
1 star 2 stars 3 stars 4 stars 5 stars
comments

Embrace Tab

   
Band:Velvet Revolver
Song:Embrace
C.D.:Controband
Tabbed:Luke(destination_hell_666@hotmail.com)
Tuning: Standard(EADGBe)

Intro
|----------------------------|
|----0---0---0---0-----------|
|---6---6---6---6------------|
|--7---7---7---7-------------|
|-0---7---6---5--------------|
|----------------------------|

|---------------------------------|
|---------------------------------|
|2-2-x-x-2-2-x-x-2-2-x-x-2-2-x-x--|
|2-2-x-x-2-2-x-x-1-1-x-x-0-0-x-x--|  repeat 3X
|0-0-x-x-0-0-x-x-0-0-x-x-0-0-x-x--|
|---------------------------------|

|---------------------------------|
|---------------------------------|
|---------------------------------|
|-2-2-----------------------------|
|-4-4-------------2h4-0-2p0-------|
|-4-4-xxxxxxxxxxx-----------------|

Verse:

|---------------------------------|
|---------------------------------|
|2-2-x-x-2-2-x-x-2-2-x-x-2-2-x-x--|
|2-2-x-x-2-2-x-x-1-1-x-x-0-0-x-x--|
|0-0-x-x-0-0-x-x-0-0-x-x-0-0-x-x--|
|---------------------------------|

|---------------------------------|
|---------------------------------|
|---------------------------------|
|-2-2-----------------------------|
|-4-4-------------2h4-0-2p0-------|
|-4-4-xxxxxxxxxxx-----------------|

I dreamt you dreamt of me yeah......

|---------------------------------|
|---------------------------------|
|2-2-x-x-2-2-x-x-2-2-x-x-2-2-x-x--|
|2-2-x-x-2-2-x-x-1-1-x-x-0-0-x-x--|
|0-0-x-x-0-0-x-x-0-0-x-x-0-0-x-x--|
|---------------------------------|

|---------------------------------|
|---------------------------------|
|---------------------------------|
|-2-2-----------------------------|
|-4-4-------------2h4-0-2p0-------|
|-4-4-xxxxxxxxxxx-----------------|

And i was all you see yeah.....

|---------------------------------|
|---------------------------------|
|2-2-x-x-2-2-x-x-2-2-x-x-2-2-x-x--|
|2-2-x-x-2-2-x-x-1-1-x-x-0-0-x-x--|
|0-0-x-x-0-0-x-x-0-0-x-x-0-0-x-x--|
|---------------------------------|

|---------------------------------|
|---------------------------------|
|---------------------------------|
|-2-2-----------------------------|
|-4-4-------------2h4-0-2p0-------|
|-4-4-xxxxxxxxxxx-----------------|

Woke up and you were gone.....

|---------------------------------|
|---------------------------------|
|2-2-x-x-2-2-x-x-2-2-x-x-2-2-x-x--|
|2-2-x-x-2-2-x-x-1-1-x-x-0-0-x-x--|
|0-0-x-x-0-0-x-x-0-0-x-x-0-0-x-x--|
|---------------------------------|

Woke up and saw the sun.....     (no guitar in soft part)

|------------------------------------------------|
|------------------------------------------------|
|------------------------------------------------|
|------------------------------------------------|
|-4-4---4-------4-4----4-----4-4---4-----4-4---4-|
|-2-2-x-2-x-x-x-2-2-x--2-xxx-2-2-x-2-xxx-2-2-x-2-|


|----------------------------|
|----0---0---0---0-----------|
|---6---6---6---6------------|
|--7---7---7---7-------------|
|-0---7---6---5--------------|
|----------------------------|

Verse:
|---------------------------------|
|---------------------------------|
|---------------------------------|
|-2-2-----------------------------|
|-4-4-------------2h4-0-2p0-------|
|-4-4-xxxxxxxxxxx-----------------|

5 in the afternoon lyin in my bed....
[ Tab from: http://www.guitartabs.cc/tabs/v/velvet_revolver/embrace_tab_ver_3.html ]
|---------------------------------|
|---------------------------------|
|2-2-x-x-2-2-x-x-2-2-x-x-2-2-x-x--|
|2-2-x-x-2-2-x-x-1-1-x-x-0-0-x-x--|
|0-0-x-x-0-0-x-x-0-0-x-x-0-0-x-x--|
|---------------------------------|

|---------------------------------|
|---------------------------------|
|---------------------------------|
|-2-2-----------------------------|
|-4-4-------------2h4-0-2p0-------|
|-4-4-xxxxxxxxxxx-----------------|

|---------------------------------|
|---------------------------------|
|2-2-x-x-2-2-x-x-2-2-x-x-2-2-x-x--|
|2-2-x-x-2-2-x-x-1-1-x-x-0-0-x-x--|
|0-0-x-x-0-0-x-x-0-0-x-x-0-0-x-x--|
|---------------------------------|

|---------------------------------|
|---------------------------------|
|---------------------------------|
|-2-2-----------------------------|
|-4-4-------------2h4-0-2p0-------|
|-4-4-xxxxxxxxxxx-----------------|

100 miles per hour thoughts are zooming by....

|---------------------------------|
|---------------------------------|
|2-2-x-x-2-2-x-x-2-2-x-x-2-2-x-x--|
|2-2-x-x-2-2-x-x-1-1-x-x-0-0-x-x--|
|0-0-x-x-0-0-x-x-0-0-x-x-0-0-x-x--|
|---------------------------------|

|---------------------------------|
|---------------------------------|
|---------------------------------|
|-2-2-----------------------------|
|-4-4-------------2h4-0-2p0-------|
|-4-4-xxxxxxxxxxx-----------------|

|---------------------------------|
|---------------------------------|
|2-2-x-x-2-2-x-x-2-2-x-x-2-2-x-x--|
|2-2-x-x-2-2-x-x-1-1-x-x-0-0-x-x--|
|0-0-x-x-0-0-x-x-0-0-x-x-0-0-x-x--|
|---------------------------------|

|-----------------------------------------------|
|-----------------------------------------------|
|-----------------------------------------------|
|-----------------------------------------------|
|-4-4---4-----4-4---4-----4-4---4------4--------|
|-2-2-x-2-xxx-2-2-x-2-xxx-2-2-x-2-xxx--2--------|
               repeat all of this all of this    <_
|----------------------------------------------    | |- |
|----------------------------------------------   ----- |
|----------------------------------------------   ----- |
|-6-6---6-----6-6---6-----6-6-x-6------6-------   ----- |
|-4-4-x-4-xxx-4-4-x-4-xxx-4-4-x-4-xxx--4-------   ----- |
                             ^                     |
Slash's part during the this |                     |
|---------------------------------                -- |
|-7h8-7p6-7h8-7p6-7h8-7p6-7h8-7p6-                -- |
|---------------------------------                -- |
|---------------------------------                -- |
|--------------------------------------------------- |   to the solo<<<_
|--------------------------------------------------- |
then this
|---------------------------------|
|---------------------------------|
|---------------------------------|
|-7h8-7p6-7h8-7p6-7h8-7p6-7h8-7p6-|
|---------------------------------|
|---------------------------------|
 then the solo goes but i havn't learned it but i will so u can learn

jst before the solo(rythem part):
|------------------------------------|
|------------------------------------|
|------------------------------------|
|------------------------------------|
|3-3-3-3-4-4-4-4-5-5-5-5-6-6-6-6-7---|
|3-3-3-3-4-4-4-4-5-5-5-5-6-6-6-6-7---|

Ending:
|-----------------------------------------------------|
|-----------------------------------------------------|
|-----------------------------------------------------|
|-----------------------------------------------------|
|-4-4-xxx-4-----4-4-xxx-4-----4-4-xxx-4-----4-4-xxx-4-|
|-2-2-xxx-2-----2-2-xxx-2-----2-2-xxx-2-----2-2-xxx-2-|

legend:
x-palm mute
Comments