Velvet Revolver - Embrace Chords & Tabs

 

Embrace Chords & Tabs

Velvet Revolver Chords & Tabs

Version: 1 Type: Tab 1 rating
1 star 2 stars 3 stars 4 stars 5 stars
comments

Embrace Tab

   
Tuning: Standard (E A D G B E)


E|------------------------------------|| x4
B|--------0-------0-------0-------0---||
G|------6-------6-------6-------6-----||
D|----7-------7-------7-------7-------||
A|--0-------7-------6-------5---------||
E|------------------------------------||


E|------------------------------------|| x4
B|------------------------------------||
G|--2-2---2-2---2-2---2-2-------------||
D|--2-2---2-2---1-1---0-0-------------||
A|--0-0---0-0---0-0---0-0-------------||
E|------------------------------------||


E|--------------------------||
B|--------------------------||
G|--------------------------||
D|--4-4-x-x-x-x-x-x-x-x-x-x-||
A|--4-4-x-x-x-x-x-x-x-x-x-x-||
E|--2-2-x-x-x-x-x-x-x-x-x-x-||


E|-------------------||
B|-------------------||
G|-------------------||
D|-------------------||
A|--2-4--0-2---------||
E|------------2-4----||


E|-------------------------||
B|-------------------------||
G|--2-2---2-2---2-2---2-2--||
D|--2-2---2-2---1-1---0-0--||
A|--0-0---0-0---0-0---0-0--||
E|-------------------------||


E|--------------------------||
B|--------------------------||
G|--------------------------||
D|--4-4-x-x-x-x-x-x-x-x-x-x-||
A|--4-4-x-x-x-x-x-x-x-x-x-x-||
E|--2-2-x-x-x-x-x-x-x-x-x-x-||

[ Tab from: http://www.guitartabs.cc/tabs/v/velvet_revolver/embrace_tab.html ]
E|-------------------||
B|-------------------||
G|-------------------||
D|-------------------||
A|--2-4--0-2---------||
E|------------2-4----||


E|-------------------------||
B|-------------------------||
G|--2-2---2-2---2-2---2-2--||
D|--2-2---2-2---1-1---0-0--||
A|--0-0---0-0---0-0---0-0--||
E|-------------------------||


E|--------------------------||
B|--------------------------||
G|--------------------------||
D|--4-4-x-x-x-x-x-x-x-x-x-x-||
A|--4-4-x-x-x-x-x-x-x-x-x-x-||
E|--2-2-x-x-x-x-x-x-x-x-x-x-||


E|-------------------||
B|-------------------||
G|-------------------||
D|-------------------||
A|--2-4--0-2---------||
E|------------2-4----||


E|-------------------------||
B|-------------------------||
G|--2-2---2-2---2-2---2-2--||
D|--2-2---2-2---1-1---0-0--||
A|--0-0---0-0---0-0---0-0--||
E|-------------------------||


E|--------------------------||
B|--------------------------||
G|--------------------------||
D|--4-4-x-x-x-x-x-x-x-x-x-x-||
A|--4-4-x-x-x-x-x-x-x-x-x-x-||
E|--2-2-x-x-x-x-x-x-x-x-x-x-||


E|-------------------||
B|-------------------||
G|-------------------||
D|-------------------||
A|--2-4--0-2---------||
E|------------2-4----||


E|-------------------------||
B|-------------------------||
G|--2-2---2-2---2-2---2-2--||
D|--2-2---2-2---1-1---0-0--||
A|--0-0---0-0---0-0---0-0--||
E|-------------------------||



E|---------------------------||
B|---------------------------||
G|---------------------------||
D|---------------------------||
A|-2--0--------5--4--2--0----||
E|-------3--2--0-------------||
Comments