Velvet Revolver - Embrace Chords & Tabs

 

Embrace Chords & Tabs

Velvet Revolver Chords & Tabs

Version: 1 Type: Bass Tab 0 ratings
1 star 2 stars 3 stars 4 stars 5 stars
comments

Embrace Bass Tab

tabbed by Doug
standard tuning

Intro
|-----------------------------------|
|-----------------------------------|
|-----------------6--6-6--5--5-5----|
|--5--5-5--5--5-5-------------------|

|--------------------------------------|
|--------------------------------------|
|--------------------------------------|
|--2-2-2-2-2-2-2-2-2-2-2-2-2-2-2-------|
[ Tab from: http://www.guitartabs.cc/tabs/v/velvet_revolver/embrace_btab.html ]
Verse
|-----------------------------------|
|-----------------------------------|
|-----------------6--6-6--5--5-5----|
|--5--5-5--5--5-5-------------------|

|-----------------------------------|
|-----------------------------------|
|-----------------------------------|
|--2-2-2-2-2-2-2-2-2-2-2-2----------|

thats all i got so far and i saw duff play this live
Comments