Velvet Revolver - Dirty Little Thing Chords & Tabs

 

Dirty Little Thing Chords & Tabs

Velvet Revolver Chords & Tabs

Version: 2 Type: Tab 0 ratings
1 star 2 stars 3 stars 4 stars 5 stars
comments

Dirty Little Thing Tab

   
band:velvet revolver
song:dirty little thing(solo)
guitarist:slash

key:bf=fullbend,r=release,bb=1/2bend,~~~~=vibrato,
    p=pulloff,hammeron=h,/=slide down,\=slide up

 Hey! The other tab to this song is awesome,but The solo wasn't as acurate as it could
be.In fact,in certain parts,it's way off!No offense,it's a great tab but I figured that
I would transcribe the solo for y'all!Slash is the most tastefull guitarist in the
business right now.I don't think it's a matter of opinion,I'd say he's about the fifth
best guitarist of the past twenty-five years.Guitar World mag consider him to be the
third best!any way here's the solo.ENJOY!

 here's this slide before the solo at the end of the second chorus

|------------|
|------------|
|------------|
|------------|
|------------|
|-----17\----|

Guitar Solo

4/4 timing fast=168(about,it's hard to tell for sure)

w/dist.
 (F#)                   ~~~~
|--------------------------------|----------------------------------|
|--------------------------------|----------------------------------|
|-------------------2-4-2h3---4--|-------2-4p2---2-2/4--2h3-2--4bf--|
|-------------2h3h4--------------|-2h3h4-------4--------------------|
|-0-----2h3h4--------------------|----------------------------------|
|---2h4--------------------------|----------------------------------|
[ Tab from: http://www.guitartabs.cc/tabs/v/velvet_revolver/dirty_little_thing_tab_ver_2.html ]
 In order to execute the first
 measure below, use alternate picking with up-
 strokes on the double-two chord on the e and
 b string,down-strokes on the pull of from 5 to 2,
 and on the 4 I prefer using another
 downstroke(I think it sounds better)
 but you could use an upstroke if
 you want.this will help your speed
 a lot,it's hard to get use to, but
 when you practice it a lot it becomes
 very easy and it's a realy good lick to
 play if you want to look impressive to
 people(not that that's the reason why
 you should do it)but beleive me,it does
 look impressive two others when you can
 do it fast as hell.
                                                      ~~
|-2-------2-------2-----------------|-2-------------------------|
|-2-5p2---2-5p2---2-5bf-small-5p2---|-2-5p2---------------------|
|-------4-------4-------rest------4-|-------4bfrp2---4-2--4p2-4/|
|-----------------------------------|--------------4------------|
|-----------------------------------|---------------------------|
|-----------------------------------|---------------------------|
                     ~~
|--------------------------------|-------------------------------|
|---5---7-7p5-5-10p7-7--12-12p10-|-14-14p12-17-17p14----1717bf17-|
|/6---6--------------------------|-------------------16----------|
|--------------------------------|-------------------------------|
|--------------------------------|-------------------------------|
|--------------------------------|-------------------------------|

|------------------------------------------------|-----------------------|
|-14h17p14----14------14-------------------------|-----------------------|
|----------17----16bb----16bbrp14-16bfrp14-16p14-|-------14--16-------14-|
|------------------------------------------------|-16p14--------16-16----|
|------------------------------------------------|-----------------------|
|------------------------------------------------|-----------------------|

continue the
same measure.
            (E5)
-----------|-15p14p12-14p12----12----------------|---------------------------|
-----------|----------------15----15-14-15p14p12-|---12----------------------|
-16p14h16\-|-------------------------------------|-15--15-15p14p12-14p12h14p-|
-----------|-------------------------------------|---------------------------|
-----------|-------------------------------------|---------------------------|
-----------|-------------------------------------|---------------------------|

continue the
same measure.
                                                                 ~~~~~~~
---------------------|-----------------------------------------------------|
---------------------|-----------------------------------------------------|
12\11----12----11h12p|11---11----------------------------------------------|
------14----14-------|--14---12h14-11h12p11----11--------------------------|
---------------------|----------------------14-----14-9h10----9------------|
---------------------|-------------------------------------12----10/12---0-|

|------12-12-------12-12------12-|-15-14-12-14-------12----------------|
|-12---12-12--12---12-12-12---12-|-15-14-12-14-12----12-------15-14-12-|
|-14bf--------14bf-------14bf----|----------------15----15-12-15-14-12-|
|--------------------------------|-------------------------------------|
|--------------------------------|-------------------------------------|
|--------------------------------|-------------------------------------|
                                                        ~~~~
|--------------------------------|-------------------------------|
|-14bbrp12-14--------12-14-12-14-|-14bbrp12-14--12--15bf-(15)\---|
|-14bbrp12-14--------12-14-12-14-|-14bbrp12-14--12---------------|
|--------------14----------------|-------------------------------|
|--------------------------------|-------------------------------|
|--------------------------------|-------------------------------|

Thanks much.I hope it's usefull.I'm pretty sure it's correct I might be 'little' off,I ain't perfect!
Comments