Velvet Revolver - Dirty Little Thing Live Chords & Tabs

 

Dirty Little Thing Live Chords & Tabs

Velvet Revolver Chords & Tabs

Version: 1 Type: Tab 0 ratings
1 star 2 stars 3 stars 4 stars 5 stars
comments

Dirty Little Thing Live Tab

Artist:Velvet revolver
Song:Dirty little thing
Tabber:Adam
Velvet revolver was so awesome live! And just in case you missed their kick ass concert,
i brought a piece back from it.
  enjoy!

                          ----Dirty little thing----

         intro:
  e-----------------------------------------------------------------------|
  b-----------------------------------------------------------------------|
  g-----------------------------------------------------------------------|
  d-2-2-2-2-2-2-2-2-2-2-2-2-2-2-2-2-2-2-2-2-2-2-2-2-2-2-2-2-2-2-2-2-------|
  a-----------------------------------------------------------------------|
  E-----------------------------------------------------------------------|

       1st guitar:
  e-----------------------------------------------------------------------|
  b-----------------------------------------------------------------------|
  g-----------------------------------------------------------------------|
  d-----------------------------------------------------------------------|
  a----0-5-0-7-0-8-0-7-5/7/5--0-5-0-7-0-8-0-7-5/7/5-----------------------|
  E----0-3-0-5-0-6-0-5-3/5/3--0-3-0-5-0-6-0-5-3/5/3-----------------------|

      Both guitars:
[ Tab from: http://www.guitartabs.cc/tabs/v/velvet_revolver/dirty_little_thing_live_tab.html ]
  e-----------------------------------------------------------------------|
  b-----------------------------------------------------------------------|
  g-----------------------------------------------------------------------|
  d-----------------------------------------------------------------------|
  a----0-5-0-7-0-8-0-7-5/7/5--0-5-0-7-0-8-0-7-5/7/5-----------------------|
  E----0-3-0-5-0-6-0-5-3/5/3--0-3-0-5-0-6-0-5-3/5/3-----------------------|


   pre-chorus:
     "youve got your head in the clouds..."
  e-----------------------------------------------------------------------|
  b-----------------------------------------------------------------------|
  g-----------------------------------------------------------------------|
  d----5-5-5-5-5-5-5-5--x-x-----------------------------------------------|
  a----3-3-3-3-3-3-3-3--x-x-7-7-7-7-7-7-7-7-------------------------------|
  E-------------------------5-5-5-5-5-5-5-5-------------------------------|


    chorus:
         "get away from the life your livin..."
  e------------------------------------------------------------------------|
  b------------------------------------------------------------------------|
  g------------------------------------------------------------------------|
  d-----------5----------7----------5--------------------------------------|play twice
  a--2-x-x-x--3--2-x-x-x-5--2-x-x-x-3--2-x-x-x-5/7-0-5/7-0-----------------|
  E--0-x-x-x-----0-x-x-x----0-x-x-x----0-x-x-x-3-5-0-3-5-0-----------------|

    outro:
  im not sure about the solo, slash was turned around when he played it.

  e-----------------------------------------------------------------------|
  b-----17~~~~-18~~~~--17~~~~-18~~~~--17~~~~-18~~~~--17~~~~-18~~~~--17/0--|
  g-----20~~~~-22~~~~--20~~~~-22~~~~--20~~~~-22~~~~--20~~~~-22~~~~--------|
  d-----------------------------------------------------------------------|
  a-----------------------------------------------------------------------|
  E-----------------------------------------------------------------------|


Questions? Comments?  e-mail me at: xamericanidiot04@yahoo.com
Comments