Velvet Revolver - Dirty Little Thing Chords & Tabs

 

Dirty Little Thing Chords & Tabs

Velvet Revolver Chords & Tabs

Version: 2 Type: Bass Tab 0 ratings
1 star 2 stars 3 stars 4 stars 5 stars
comments

Dirty Little Thing Bass Tab

----------------------------------------------------------------------------
	        	Dirty Little Thing - Velvet Revolver
----------------------------------------------------------------------------

Tuning: Standard

Intro: just a lot of fourteens (the 12h14 only happens once. listen to the song for 
it goes)
G|--------------------------------------------------------------------------|
D|-14141414141414141414141412h14141414--------------------------------------|
A|--------------------------------------------------------------------------|
E|--------------------------------------------------------------------------|

End of intro
G|--------------------------------------------------------------------------|
D|-141414-14-12-------------------------------------------------------------|
A|--------------14-12-------------------------------------------------------|
E|--------------------14-12\------------------------------------------------|

Verse: (can't stop thinkin'...) just a lot of 5s
G|--------------------------------------------------------------------------|
D|--------------------------------------------------------------------------|
A|--------------------------------------------------------------------------|
E|-5555555555555555555555---------------------------------------------------|
[ Tab from: http://www.guitartabs.cc/tabs/v/velvet_revolver/dirty_little_thing_btab_ver_2.html ]
Verse break: (Yeah, and when I roll...)
G|--------------------------------------------------------------------------|
D|--------------------------------------------------------------------------|
A|--------------------------------------------------------------------------|
E|-55555--55-XxXxX----------------------------------------------------------|

Pre-chorus: (you've got your head in the clouds...)
G|--------------------------------------------------------------------------|
D|--------------------------------------------------------------------------|
A|-3333333333333333-3-0000000000000000--------------------------------------|
E|--------------------------------------------------------------------------|

Chorus: (get away)
G|--------------------------------------------------------------------------|
D|--------------------------------------------------------------------------|
A|------3---------5---------3---2-------------------------------------------|
E|-0---------0---------0------------03--05----------------------------------|

Bridge:
G|--------------------------------------------------------------------------|
D|-141414141414141414(a lot)-14-12-10---------------------------------------|
A|------------------------------------14-12-10\-----------------------------|
E|--------------------------------------------------------------------------|

Solo: Wow, that's a lot of threes
G|--------------------------------------------------------------------------|
D|--------------------------------------------------------------------------|
A|-333333333333333333333333333333333333333333-------------------------------|
E|--------------------------------------------------------------------------|

Order:
Intro
End of intro
Verse
Verse Break
Verse
Pre-Chorus
Chorus
Bridge
Verse
Verse Break
Verse
Pre-Chorus
Chorus
Solo
Pre-Chorus
Chorus
Comments