Velvet Revolver - Bodies Chords & Tabs

 

Bodies Chords & Tabs

Velvet Revolver Chords & Tabs

Version: 1 Type: Bass Tab 0 ratings
1 star 2 stars 3 stars 4 stars 5 stars
comments

Bodies Bass Tab

Band: Velvet Revolver
Song: Bodies
Album: Contraband

Intro:
g:----------------------------------------|
d:----------------------------------------|
a:---------5---5---7-------5--5-----------|
e:-----2/3-----------2/3----------0-------|
[ Tab from: http://www.guitartabs.cc/tabs/v/velvet_revolver/bodies_btab.html ]
Verse:                                 x4                               x2
g:----------------------------------------|----------------------------------|
d:----------------------------------------|----------------------------------|
a:--2-2-2-2-2-2-2-2-2-2-2-2-2-2-2-2-2-2-2-|----------------2-2-2-2-2-2-2-2-2-|
e:----------------------------------------|--2-2-2-2-2-2-2-2-2---------------|

Chorus:
g:---------------------------------------------------------|-----------------|
d:---------------------------------------------------------|-----------------|
a:----------------------------------4/5-5-5-5--4/5-5-5-5---|-0-0-0-0-0-0-0-0-|
e:---3-3-3-3-3-3-3-3--5-5-5-5-5-5-5------------------------|-----------------|

Verse:
Chorus:
Bridge:
g:------------------------------------------|
d:------------------------------------------|
a:--5-5-5-5-5-5-5-5-5-5---------------------|
e-------------------------2/3-3-3---2/3-3-3-|

Vrese:
Chorus:
Outro/Bridge

Finnished

Tabbed By Rob McCombie
Comments