Velvet Revolver - Big Machine Chords & Tabs

 

Big Machine Chords & Tabs

Velvet Revolver Chords & Tabs

Version: 1 Type: Bass Tab 0 ratings
1 star 2 stars 3 stars 4 stars 5 stars
comments

Big Machine Bass Tab

==================================================================
                                  BIG MACHINE - VELVET REVOLVER.
==================================================================

BASSIST: Duff Mckagan.
EFFECTS: Distortion.(ProCo Rat) w/ Pick.

TABBER: *TryToClaimHer*
E-MAIL: Drain_ts_ad@hotmail.com

TUNING: STANDARD.

INTRO:

G---------------------|II
D---------------------|II     X 20
A---------------------|II
E--1---1-1-2----------|II
                   ^

VERSE AND PRE-CHORUS:

G---------------------|II
D---------------------|II     X 27
A---------------------|II
E--1---1-1-2----------|II
                   ^

END OF PRE-CHORUS:

G-----------------------------------|II
D--------------------------------X1-|II
A-----------------------------------|II
E--5-5-5-5-5-5-5-5------------------|II
Ay Ay Ay Ay Ay Ay ...
[ Tab from: http://www.guitartabs.cc/tabs/v/velvet_revolver/big_machine_btab.html ]
CHORUS:
/  /  /  /  /       / / / / /
G-----------------------------------------------------------13-12-11---8-7-5----------------------|II
D-------------------------------------------------------------------------------------II     X 3--|
A-------------------------------------------------------------------------------------------------|II
E--1---1-1-2---1---1-1-2---1---1-1-2---1---1-1-2--------------------------------------------------|II
                   ^                  ^                  ^                   ^

G--------------------------------------------------------|II
D----------------------------------------------------X 1-|II
A--------------------------------------------------------|II
E--1---1-1-2---1---1-1-2---1---1-1-2---------------------|II
                   ^                  ^                  ^

BRIDGE:

G------------------------|II
D------------------------|II     X 16
A------------------------|II
E--1---1-1-2-------------|(b)II
                   ^

G-----------------------------|II
D-------------------------X16-|II
A-----------------------------|II
E--1---1-1-2------------------|(b)II
                   ^

FILL 1:

G-------------------------------------------------|II
D---------------II     MUTED: X  17. NORMAL X  17-|
A-------------------------------------------------|II
E--1---1-1-2--------------------------------------|II
                   ^

END:

G-------------------------------------------------------|II
D---------------------------------------------------X 1-|II
A-------------------------------------------------------|II
E--0-0--X--0-0--X--0-0--X--0-0---0----------------------|II

==================================================================
                 -------------END----------------
==================================================================
Comments