Velikije Luki - To Mr Reagan Chords & Tabs

 

To Mr Reagan Chords & Tabs

Velikije Luki Chords & Tabs

Version: 1 Type: Tab 0 ratings
1 star 2 stars 3 stars 4 stars 5 stars
comments

To Mr Reagan Tab

intro
:-7--7-5-3-2-3-3-33-2-0---0-0-00-2-3-5-7-7-77-8-7-5-77---
:-----------------------3--------------------------------
:--------------------------------------------------------
:--------------------------------------------------------
:--------------------------------------------------------
:--------------------------------------------------------

pre verse
:------------------------------------------------
:------------------------------------------------
:--9-9-9-9-9-9-9-9---4-4-4-4-4-4-4-4-------------
:--9-9-9-9-9-9-9-9---4-4-4-4-4-4-4-4-------------
:--7-7-7-7-7-7-7-7---2-2-2-2-2-2-2-2-------------
:------------------------------------------------

verse
:------------------------------------------------------------------------
:------------------------------------------------------------------------
:--4-4-4-4-4-4-4-4--7-7-7-7-7-7-7-7--9-9-9-9-9-9-9-9--2-2-2-2-2-2-2-2----
:--4-4-4-4-4-4-4-4--7-7-7-7-7-7-7-7--9-9-9-9-9-9-9-9--2-2-2-2-2-2-2-2----
:--2-2-2-2-2-2-2-2--5-5-5-5-5-5-5-5--7-7-7-7-7-7-7-7--2-2-2-2-2-2-2-2----
:------------------------------------------------------------------------

chorus
:----------------------------------------------------------------
:----------------------------------------------------------------
:--------------------7-7-8-8-9-9--3x-------------------9~--------
:--7-7-7-7-7-7-7-7---7-7-8-8-9-9------7-7-7-7-7-7-7-7--9-9~------
:--7-7-7-7-7-7-7-7---5-5-6-6-7-7------7-7-7-7-7-7-7-7--7-9-------
:--5-5-5-5-5-5-5-5--------------------5-5-5-5-5-5-5-5----7-------

solo
first play the intro a pit then
1x
:--7-7-8-8-10-10-10/8--5-5-7-7-8-8-8/7--3-3-5-5-7-7-7/5--2-2-3-3-5-5-5/3--
:-------------------------------------------------------------------------
:-------------------------------------------------------------------------
:-------------------------------------------------------------------------
:-------------------------------------------------------------------------
:-------------------------------------------------------------------------

2x
e-0~-2/0-2/0-2/0-2/0--3-2--3/2-3/2-3/2-3/2--5-3-5/3-5/3-5/3-5/3--7-5--7/5-7/5-7/5-7/5--9~--
the second time replace this with the intro-7-5-3-2-
[ Tab from: http://www.guitartabs.cc/tabs/v/velikije_luki/to_mr_reagan_tab.html ]
thats it i guess well actully its mostly the lead guitar part. another fine
example of estonish underground punk that you dear reader have no clue about. ill
write some lyrics here just to show you how velikije made a mockery of the cold
war and the soviet propaganda against usa(not that id like what the US is doing
to the world right now die mr bush and all your friends too)well this song was
made in the 80s so you must understand. velikije was one of the banned bands at
that time in the ussr.

lyrics
                                             translation for all you americans
kastidest on kokku löödud maja             theres an house built from boxes
sellelgi on liiga kõrge rent               and even it has to high rent
rõõmsat uudist teatab 'Päevakaja'          good news in the 'Päevakaja'
filminäitlejast on saanud president        a moviestar has become a president

chorus
vastik mr. ronald raegan                   discusting mr. ronald reagan
naeratave näoga keigar                     smily faced cocky bastard
sulle meeldib pommi müüa                   you like to sell bombs
oled vana ilge türklane                    youre a fucking turkeish person

võtan börsiukse taha sappa                 fall in line behind the stock door
taskust kadunud on viimne sent             lost my last sent
unistused ammu uppund rappa                dreams have all drowned
filminäitlejast on saanud president        a moviestar has become a president

chorus

tuumapommid meie omaks saavad              nuclear weapons will be ours
saavad oma kuuba ja tarskent               cuba and tarskent will get their own
varsti allub meile kogu maailm             soon well rule the world
filminäitlejast on saanud president        a moviestar has become a president


last chorus is diferent it goes like this
vastik mr. ronald raegan                     discusting mr. ronald reagan
naeratave näoga keigar                       smily faced cocky bastard
sulle meeldib pommi müüa                     you like to sell bombs
oled vana ilge türklane                      youre a fucking cunt

intro 2x
preverse 1x
verse 2x
chorus
intro 2x
preverse 1x
verse 2x
chorus
intro 2x
solo
preverse 1x
verse 2x
chorus
intro 2x
Comments