Velazco Juan Fernando - Dicen Chords & Tabs

 

Dicen Chords & Tabs

Velazco Juan Fernando Chords & Tabs

Version: 3 Type: Tab 0 ratings
1 star 2 stars 3 stars 4 stars 5 stars
comments

Dicen Tab

   
Dicen
Juan Fernando Velazco
por: jhonnyquest88

 Intro
  Am                        E7
  Gtr I
|--------------------|-5-7--8--7--5--|-4-------------|--------|
|-4h5-5--6-5--4h5----|---------------|----6p=5--5h6--|-5--4-5-|
|--------------------|---------------|---------------|--------|
|--------------------|---------------|---------------|--------|
|--------------------|---------------|---------------|--------|
|--------------------|---------------|---------------|--------|


  Am                      E7
|------------------|-5-7--8--7--8--|-10h12--12--10--7h8--|-7-5-4--*|
|-5-5--6-5--4h5----|---------------|---------------------|--------*|
|------------------|---------------|---------------------|--------*|
|------------------|---------------|---------------------|--------*|
|------------------|---------------|---------------------|--------*|
|------------------|---------------|---------------------|--------*|

Verse 1)
Am                                        B7     
Dicen que el tiempo es el mejor remedio para olvidar,
Dm                                        E7
dicen que no hay mal que dure cien años y no es verdad
Am                                      B7
dicen que del odio al amor solamente un paso hay,
Dm                                       E7
y aunque lo intento mil veces no puedo dejarte de amar
(no puedo dejarte de amar)

Intro 2:
  Am                      E7
------|----------------|-5-7--8--7--8--|-10h12--12--10--7h8--|-7-5-4--*|
--4-5-|-5--6-5--4h5----|---------------|---------------------|--------*|
------|----------------|---------------|---------------------|--------*|
------|----------------|---------------|---------------------|--------*|
------|----------------|---------------|---------------------|--------*|
------|----------------|---------------|---------------------|--------*|
[ Tab from: http://www.guitartabs.cc/tabs/v/velazco_juan_fernando/dicen_tab_ver_3.html ]
Verse 2)
Am                                      B7
Dicen que la distancia es el olvido y a mi me da igual,
Dm                                           E7
porque por mas que me alejo en mi mente te escondes y estas
(enloqueciendome)
Am                                   Dm 
Dicen y dicen frases sin sentido y estan tan mal,
G                                           E7
porque no saben, porque no han sentido el dolor de amar

Chorus:
                 C         A
Cuando no se puede olvidar...   
      Dm              G               C          A 
Y los dias, se hacen grises, como las noches
                       Dm             G        E
y aquel sueño, nunca llega. no se cuando volverás...

(Intro 2)

(igual que el verso 2)
y aunque todo lo que dice la gente suena verdad,
no hay mas verdad que la soledad que siento cuando no estas
(te necesito)....
Porque sin ti nada tiene sentido, y a ti te da igual,
porque no sabes, tu nunca has sentido el dolor de amar.

Chorus:

Cuando no se puede olvidar... 

(Intro 2)

Am                              E7
dicen que la distancia es el olvido
Am                                            E7                    
y que por mas que me alejo en mi mente te escondes y estas...
Am                                             E7
y a lo que todo lo que dice la gente, lo que dice la gente
Am                                                  E7
porque no sabes, tu nunca has sentido el dolor de amar.
Am                             E7
Oyeme, dime cuando, cuando, cuando..
Am                                        E7
y los dias se hacen grises... cuando volveras..

/*
Esta cancion la dedico una mujer muy especial en mi vida,
ella fue mi inspiración para yo haber hecho esta tab,
la saque para tocarla en nuestro primer aniversario…
 y que por encima de los problemas…
estamos juntos nuevamente…       */
Comments