Vector - Satan Must Die Chords & Tabs

 

Satan Must Die Chords & Tabs

Vector Chords & Tabs

Version: 1 Type: Tab 0 ratings
1 star 2 stars 3 stars 4 stars 5 stars
comments

Satan Must Die Tab

#----------------------------------PLEASE NOTE--------------------------------#
#This file is the author's own work and represents their interpretation of the#
#song. You may only use this file for private study, scholarship, or research.#
#-----------------------------------------------------------------------------#
#-- File created with Instab - http://www.pconline.com/~smcarey/instab.html --#
#-----------------------------------------------------------------------------#

Author/Artist: Vector
Title: Satan Must Die !
Album: Mouldering Bodies
Transcribed by: MARTIN ROJEK
Email: MartinRojek@web.de

------------------|------------------|-----------------|----------------------
------------------|------------------|-----------------|----------------------
------------------|------------------|-----------------|----------------------
------------------|-------------7-7--|-----------------|----------------------
--7-7-7-7-7-7-5-5-|-2-2-2-2-2-2/5-5--|-2-2-2-2-2-2-3-3-|----------------------
--5-5-5-5-5-5-3-3-|-0-0-0-0-0-0/-----|-0-0-0-0-0-0-1-1-|----------------------
 Intro    4x               3x                                                 

-------------------------------------------------------|----------------------
-------------------------------------------------------|----------------------
-------------------------------------------------------|----------------------
-----2-----2---2-----2-----2---2-----2-----2---2-5-4-3-|----------------------
-----2-----2---2-----2-----2---2-----2-----2---2-5-4-3-|----------------------
-0-0-0-0-0-0-0-0-0-0-0-0-0-0-0-0-0-0-0-0-0-0-0-0-3-2-1-|----------------------
 1.Bridge               Play 4x                                               
[ Tab from: http://www.guitartabs.cc/tabs/v/vector/satan_must_die_tab.html ]
---------------------------------------------------------|--------------------
---------------------------------------------------------|--------------------
--5-x-5-x-5/-7-x-7-x-7/--------------------------------7-|--------------------
--5-x-5-x-5/-7-x-7-x-7/-----9-----10---9---7---9---10--7-|--------------------
--3-x-3-x-3/-5-x-5-x-5/-7-7---7-7----7---7---7---7-----5-|--------------------
---------------------------------------------------------|--------------------
 Verse                   Play 2x                                              

-------------------------------------------------------------------------|----
-------------------------------------------------------------------------|----
-------------------------------------------------------------------------|----
-9-7-----------7-x-7-x-7/-------------------------------7-5----7-----5-4-|----
-9-7-7-x-7-x-7-7-x-7-x-7/-----9-----10---9---7---9---10-7-5----7-----5-4-|----
-7-5-8-x-8-x-8-5-x-5-x-5/-7-7---7-7----7---7---7---7----5-3----5-----3-2-|----
                                                                              

------------------------------------------------------------------|-----------
------------------------------------------------------------------|-----------
------------------------------------------------------------------|-----------
-4-4-4-4-4-4-4-4-5-5-5-5-5-5-5-5-3-3-3-3-3-3-3-3-4-4-4-4-4-4-4-4--|-----------
-2-2-2-2-2-2-2-2-3-3-3-3-3-3-3-3-1-1-1-1-1-1-1-1-2-2-2-2-2-2-2-2--|-----------
------------------------------------------------------------------|-----------
 2. Bridge                    Play 2x                                         

-0-7-2-0-7-2-0-|-0-8-3-0-8-3-0-|-2-10-5-2-10-5-2-|----------------------------
---------------|---------------|-----------------|----------------------------
---------------|---------------|-----------------|----------------------------
---------------|---------------|-----------------|----------------------------
---------------|---------------|-----------------|----------------------------
---------------|---------------|-----------------|----------------------------
 Solo     8x          4x               4x                                     

------------------------------------------------------------------------------
------------------------------------------------------------------------------
------------------------------------------------------------------------------
------------------------------------------------------------------------------
-9--8--7--6--5--4--3--2-------------------------------------------------------
-7--6--5--4--3--2--1--0-------------------------------------------------------
 Das sind die Griffe die nach dem solo  gespielt werden.                      

Comments