Vector - Deep Silence Chords & Tabs

 

Deep Silence Chords & Tabs

Vector Chords & Tabs

Version: 1 Type: Tab 0 ratings
1 star 2 stars 3 stars 4 stars 5 stars
comments

Deep Silence Tab

#----------------------------------PLEASE NOTE--------------------------------#
#This file is the author's own work and represents their interpretation of the#
#song. You may only use this file for private study, scholarship, or research.#
#-----------------------------------------------------------------------------#
#-- File created with Instab - http://www.pconline.com/~smcarey/instab.html --#
#-----------------------------------------------------------------------------#

Author/Artist: Vector
Title: Deep Silence
Album: Mouldering Bodies
Transcribed by: Martin Rojek
Email: MartinRojek@web.de

You have to listen to the song to understand the TAB
and the solo.



Lyrics:(by Sebastian Froehlich)

(Intro)
IT‘S LONG AGO THE TIME GOES ON 
IT‘S LIKE A SHOCK THEN TIME NEVER STOPS 
DEATH COMES SUDDENLY INTO ME 
DIE BY CLAPPING HANDS, SO SUDDENLY 

I SEE THE TIME IS COMING 
COMING INTO OUR LIVES 
WILL NEVER STOP KEEPS RUNNING 
GOES ON AND ON AT LAST 

(Verse)
IT‘S LONG AGO THE TIME GOES ON 
IT‘S LIKE A SHOCK THAN TIME NEVER STOPS 
DEATH COMES SUDDENLY OVER ME 
I DIE BY CLAPPING HANDS SO SUDDENLY 

(Chorus)
I HEAR THE CLOCK IS RUNNING 
SILENCE IS OVER NOW 
YOU CANNOT STOP SURROUNDING FEAR 
THE TIME GOES ON AND ON 

(Verse 2)
IT‘S A SILENCE IN ME AND I TRIED TO BE 
A LOVERMAN BUT TIME CAME SUDDENLY 
COOL MY FEVER, CALM MY SHIVER 
LOVE MY LAST HOURS WITH YOU 

(Chorus)
WE SEE THE DAYBREAK COMMING 
WE SEE THE RISING SUN 
YOU BODY IS FETCHED WHILE REAPER CAME 
HOW WILL YOU BEHAVE 
       -SOLO-

(Chorus after solo)
AND NOW TIME SEES ME COMING 
COMING INTO YOUR SOULS 
WILL NEVER STOP RUNNING 
RUNNING ON AND ON WITH THE TIME 

(Verse2)
WHEN YOU SLEEP YOU DON’T WASTE YOUR TIME 
AND YOU DON’T SEE NEVER SLEEPING CRIME 
YOU JUST HEAL YOUR TORTURED NERVES 
DON’T BE BORED AND DON’T WASTE 

(Chorus)
AND NOW THE CLOCK HEARS ME RUNNING 
SILENCE WILL COME TO YOU ONE DAY 
TIME CANNOT STOP SURROUNDING FEAR 
WE WILL GO ON AND ON WITH THE TIME 

                              VECTOR - DEEP SILENCE


----------------------------------|-------------0-------------------|---------
----------------------------------|---------------0-----------------|---------
-------0-------0-----0------------|-----0-----------------0------0--|---------
-----2-------0-----4---4---2/---4-|---4---4---2---------2----2------|-2-------
---2-------2-----5-------3----5---|-5-------3---------2--------2----|-2-------
-0-------3------------------------|-----------------0---------------|-0-------
 Intro(clean)  Play 6x                        Play 4 x                        

--------------------------------------------------------------------|---------
--------------------------------------------------------------------|---------
-9-9-9-9-9-9-9-9-------------------5-5-5-5-5-5-5-5--7-7-7-7-7-7-7-7-|---------
-9-9-9-9-9-9-9-9--5-5-5-5-5-5-5-5--5-5-5-5-5-5-5-5--7-7-7-7-7-7-7-7-|---------
-7-7-7-7-7-7-7-7--5-5-5-5-5-5-5-5--3-3-3-3-3-3-3-3--5-5-5-5-5-5-5-5-|---------
------------------3-3-3-3-3-3-3-3-----------------------------------|---------
 Verse (Distortion)                    2x                                       

--------------------------------|---------------------------------------------
--------------------------------|---------------------------------------------
--------5--x-5/4----------------|---------------------------------------------
-4-4-x--5--x-5/4--2-2/--9--10-9-|---------------------------------------------
-5-5-x--3--x-3/2--2-2/--7--7--7-|---------------------------------------------
------------------0-0-----------|---------------------------------------------
 Chorus        Play 4x                                                         
[ Tab from: http://www.guitartabs.cc/tabs/v/vector/deep_silence_tab.html ]
------------------------------------------------------------------------------
------------------------------------------------------------------------------
-9-9-9-9-9-9-9-9-9-9-9-9-9-9-9-9----------------------------------------------
-9-9-9-9-9-9-9-9-9-9-9-9-9-9-9-9--5-5-5-5-5-5-5-5-5-5-5-5-5-5-5-5-------------
-7-7-7-7-7-7-7-7-7-7-7-7-7-7-7-7--5-5-5-5-5-5-5-5-5-5-5-5-5-5-5-5-------------
----------------------------------3-3-3-3-3-3-3-3-3-3-3-3-3-3-3-3-------------
 Verse 2                                                                      

------------------------------------------------------------------|
------------------------------------------------------------------|
-7-7-7-7-7-7-7-7-7-7-7-7-7-7-7-7--5-5-5-5-5-5-5-5--7-7-7-7-7-7-7-7|
-7-7-7-7-7-7-7-7-7-7-7-7-7-7-7-7--5-5-5-5-5-5-5-5--7-7-7-7-7-7-7-7|
-5-5-5-5-5-5-5-5-5-5-5-5-5-5-5-5--3-3-3-3-3-3-3-3--5-5-5-5-5-5-5-5|
------------------------------------------------------------------|
                                                                              

------------------------------------------------------------------------------
------------------------------------------------------------------------------
------------9-------7h9-9--17-17-17-17-16-16-14--14-14-16-17-16-14------------
----------------7h9-----------------------------------------------------------
--7-7-----7---7---------------------------------------------------------------
------0-0---------------------------------------------------------------------
 Bass-Solo (can also be played by the 2nd Guitar)  ( I prefer the guitar)     

------------------------------------------------------------------------------
------------------------------------------------------------------------------
------------------------------------------------------------------------------
-17-16-14-16--17-16-14-16---17-16-14-16-14------------------------------------
--------------------------------------------17-17-17-17--15-15--14-14-14------
------------------------------------------------------------------------------
                                                                              

----------|-------------------------------------------------------------------
----------|-------------------------------------------------------------------
----------|-------------------------------------------------------------------
----------|-------2---4---5---------2---4---5---------5---4-------------------
----------|---------------------------------------------------5---------------
-17-17--15|-0-0-0---0---0-----0-0-0---0---0-----3-3-3---3---3-----------------
            2nd part of the solo                                              

------------------------------------------------------------------------------
------------------------------------------------------------------------------
------------------------------------------------------------------------------
-------5---4-------------4---3-------------4---3------------------------------
---------------5-----------------4-----------------4--------------------------
-3-3-3---3---3-----2-2-2---2---2-----2-2-2---2---2----------------------------
                                                                              

--------------------------|
--------------------------|
-4-4-4-4-4-4-4--5-5-5-/-6-|
-4-4-4-4-4-4-4--5-5-5-/-6-|
-2-2-2-2-2-2-2--3-3-3-/-4-|
--------------------------|
                                                                

------------------------------------------------------------------------------
------------------------------------------------------------------------------
--9-9-9-9-9-9-9-9-9-9-9-9-9-9-9-9--5-5-5-5-5-5-5-5-5-5-5-5-5-5-5-5------------
--9-9-9-9-9-9-9-9-9-9-9-9-9-9-9-9--5-5-5-5-5-5-5-5-5-5-5-5-5-5-5-5------------
--7-7-7-7-7-7-7-7-7-7-7-7-7-7-7-7--3-3-3-3-3-3-3-3-3-3-3-3-3-3-3-3------------
------------------------------------------------------------------------------
 That's the rhythm guitar in the solo                                 

--------------------------------------------------------------------|---------
--------------------------------------------------------------------|---------
-7-7-7-7-7-7-7-7-7-7-7-7-7-7-7-7--4-4-4-4-4-4-4-4--5-5-5-5--7-7-7-7-|---------
-7-7-7-7-7-7-7-7-7-7-7-7-7-7-7-7--4-4-4-4-4-4-4-4--5-5-5-5--7-7-7-7-|---------
-5-5-5-5-5-5-5-5-5-5-5-5-5-5-5-5--2-2-2-2-2-2-2-2--3-3-3-3--5-5-5-5-|---------
--------------------------------------------------------------------|---------
                       Play 2x                                                

Comments