Vaux - Set It To Blow Chords & Tabs

 

Set It To Blow Chords & Tabs

Vaux Chords & Tabs

Version: 1 Type: Tab 0 ratings
1 star 2 stars 3 stars 4 stars 5 stars
comments

Set It To Blow Tab

   
http://www.vauxrock.com/

ARTIST: Vaux
TITLE: Set It To Blow
ALBUM: There Must Be Some Way To Stop Them
TABBED BY: kryptonite22
TUNING: Drop D (D A D G B e)
NOTES: There are actually three guitarists in Vaux, but I adapted this tab for two.
I worked for ages at it, but some of ot still doesn't sound 100% right (the parts with the *s).
There are also some tricky lead guitar parts towards the end which I couldn't work out.
If anyone has any comments or corrections, please PM me. Listen to the song for timing and rhythm.
It's a great song, enjoy.

INTRO PART 1 (+ drums)
e|--------------------------
B|--------------------------
G|--9h10--9h10--9h10--9h10--
D|--------------------------
A|--------------------------
D|-------------------------- x4

INTRO PART 2 (PART 1 + bass) x8

RIFF 1 (rhythm)
e|-------------------------------------------------
B|-------------------------------------------------
G|-------------------------------------------------
D|--77777777--33333--66--2222222222--000--333--55--
A|--77777777--33333--66--2222222222--000--333--55--
D|--77777777--33333--66--2222222222--000--333--55-- x4

RIFF 1 (lead)
e|--------------------
B|--------------------
G|--8--5--8--7--4--7--
D|--------------------
A|--------------------
D|-------------------- x3, then
[ Tab from: http://www.guitartabs.cc/tabs/v/vaux/set_it_to_blow_tab.html ]
e|-------------------------------
B|-------------------------------
G|--8--5--8--7h8--7h8--7h8--7h8--
D|-------------------------------
A|-------------------------------
D|------------------------------- x1

RIFF 1 (RHYTHM x4)

RIFF 1 (RHYTHM w/INTRO PART 1 x4)

RIFF 1 x4

RIFF 2 (lead)*
e|---------------------------------------------
B|---------------------------------------------
G|--0002--222--3332--222---0002--222-3p2--3p2--
D|---------------------------------------------
A|---------------------------------------------
D|--------------------------------------------- x1

RIFF 2 (rhythm, w/ LEAD)*
e|------------------------------------------
B|------------------------------------------
G|------------------------------------------
D|--0000--3333--0000--3333--55--33--66--00--
A|--0000--3333--0000--3333--55--33--66--00--
D|--0000--3333--0000--3333--55--33--66--00-- x4

RIFF 3 (rhythm)
e|---------------------
B|---------------------
G|---------------------
D|--0--3p0--655--0h53--
A|--0--3p0--655--0h53--
D|--0--3p0--655--0h53-- x6

RIFF 1 (RHYTHM x2)

RIFF 1 (RHYTHM w/INTRO PART 1 x2)

RIFF 4
e|-----------------------
B|-----------------------
G|-----------------------
D|--55h7777--55h7777--3--
A|--55h7777--55h7777--3--
D|--55h7777--55h7777--3-- x4

RIFF 2 (lead + rhythm x2)

RIFF 5 (rhythm)* - also a lead part played over the top
e|--------------
B|--------------
G|--------------
D|--0--5--3--2--
A|--0--5--3--2--
D|--0--5--3--2-- x4

ENDS ON
e|-----
B|-----
G|-----
D|--0--
A|--0--
D|--0-- fades out
Comments