Vaughan Stevie Ray - Sky Is Crying Chords & Tabs

 

Sky Is Crying Chords & Tabs

Vaughan Stevie Ray Chords & Tabs

Version: 1 Type: Bass Tab 0 ratings
1 star 2 stars 3 stars 4 stars 5 stars
comments

Sky Is Crying Bass Tab

                                                                                         
G||-----------------------|------5--3--5--8--------------|------5--3--5--8--------------|
D||--------------3h-4h-5--|---------------------3h-4h-5--|---------------------3h-4h-5--|
A||-----------------------|--3---------------------------|--3---------------------------|
E||-----------------------|------------------------------|------------------------------|


                                                                                             
------5--3--5--8--------------|------5--3--5--8--------------|------------------------------|
---------------------3h-4h-5--|------------------------------|------3--1--3--6--------------|
--3---------------------------|--3------------------1h-2h-3--|---------------------1h-2h-3--|
------------------------------|------------------------------|--1---------------------------|

[ Tab from: http://www.guitartabs.cc/tabs/v/vaughan_stevie_ray/sky_is_crying_btab.html ]
                                                                                             
------------------------------|------5--3--5--8--------------|------5--3--5--8--------------|
------3--1--3--6-----3h-4h-5--|---------------------3h-4h-5--|------------------------------|
------------------------------|--3---------------------------|--3------------------3h-4h-5--|
--1---------------------------|------------------------------|------------------------------|


                                                                                             
------------------------------|------------------------------|------5--3--5--8--------------|
------5--3--5--8--------------|------3--1--3--6-----3h-4h-5--|---------------------3h-4h-5--|
---------------------1h-2h-3--|------------------------------|--3---------------------------|
--3---------------------------|--1---------------------------|------------------------------|


                                
------5--3--5--8--------------||
---------------------3h-4h-5--||
--3---------------------------||
------------------------------||


Comments