Vaughan Stevie Ray - Shake For Me Chords & Tabs

 

Shake For Me Chords & Tabs

Vaughan Stevie Ray Chords & Tabs

Version: 1 Type: Tab 0 ratings
1 star 2 stars 3 stars 4 stars 5 stars
comments

Shake For Me Tab

Stevie Ray Vaughan - Shake For Me

Written by Willie Dixon and first performed by Howlin' Wolf, this version
is a live cover by Stevie Ray Vaughan and features some pretty nifty solos.
I know my tab isn't exact, but this is how I play it and it fits perfectly.
Tuned down approximately 3/4s of a tone, so it'll sound somewhere between
A major and Bb major on the record, though it's played in B.

Main riff:

E|------7---------------------------------7----------
B|------7---------------------------------7---10b12~-
G|-9b11-----7--7--9-9-9-9-10-10-11---9b11------------
D|---------------------------------------------------
A|---------------------------------------------------
E|---------------------------------------------------

E|------7---------------------------------7----------
B|------7---------------------------------7---9-7tr9-
G|-9b11-----7--7--9-9-9-9-10-10-11---9b11------------
D|---------------------------------------------------
A|---------------------------------------------------
E|---------------------------------------------------

E|-------12----------------------------------------12----------
B|-------12----------------------------------------12---15b17~-
G|-14b16------12--12--14-14-14-14-15-15-16---14b16-------------
D|-------------------------------------------------------------
A|-------------------------------------------------------------
E|-------------------------------------------------------------

E|------7---------------------------------7----------
B|------7---------------------------------7---9-7tr9-
G|-9b11-----7--7--9-9-9-9-10-10-11---9b11------------
D|---------------------------------------------------
A|---------------------------------------------------
E|---------------------------------------------------

E|-------14------------------12----------------------
B|-------14---17b19~---------12---15b17~-15p12-15p12-
G|-16b18---------------14b16-------------------------
D|---------------------------------------------------
A|---------------------------------------------------
E|---------------------------------------------------

E|------7--------7-7-7---7-7-7---------------
B|------7--------7-7-7---7-7-7---------------
G|-9b11-----9b11-----------------------------
D|-------------------------------------------
A|-----------------------------9h11p9-9h11p9-
E|-------------------------------------------

All the little fills during the verses are just parts from the main riff,
except for this little one after "When my baby walks, you know she's fightin
below":

E|---------7----------------------------7-------
B|---------7-10p7------10---------------7-9b10~-
G|-9b11~----------9/11----11-9/7---9b11---------
D|-------------------------------9--------------
A|----------------------------------------------
E|----------------------------------------------

which is just a little variation on SRV's fav lick.

=========
1st solo:
=========

(The three solos are back to back, but it's easier to learn if you split it up
into the three sections)

E|---9b11=11=11=11=11r9p7---7-9b11-----9b11=11=11=11-
B|-7----------------------9----------7---------------
G|---------------------------------------------------
D|---------------------------------------------------
A|---------------------------------------------------
E|---------------------------------------------------

E|---9b11=11=11=11=11=11=11=11=11=11=11=11-7---7-9-
B|-7-----------------------------------------9-----
G|-------------------------------------------------
D|-------------------------------------------------
A|-------------------------------------------------
E|-------------------------------------------------

E|-9b11r9p7---7-9-7-9----------------------------
B|----------9-----------10b12~---10b12-7---------
G|---------------------------------------9b11-7~-
D|-----------------------------------------------
A|-----------------------------------------------
E|-----------------------------------------------
[ Tab from: http://www.guitartabs.cc/tabs/v/vaughan_stevie_ray/shake_for_me_tab.html ]
E|-7-7-7-7-7-7--------------------------------------
B|-7-7-7-7-7-7---------10b12~---10b12r10-7----------
G|-------------9p7-------------------------9b11-9-7-
D|-----------------9--------------------------------
A|--------------------------------------------------
E|--------------------------------------------------

E|-10b12~-10-7----7----------7-7-7-7-7-7-7---------------
B|-------------10---10-10~---7-7-7-7-7-7-7---------------
G|---------------------------7-7-7-7-7-7-7---------------
D|-------------------------------------------------------
A|-----------------------------------------9h11p9-9h11p9-
E|-------------------------------------------------------

2nd solo:

E|---9b11=11=11=11=11r9p7---7-9b11-----9b11=11=11=11-
B|-7----------------------9----------7---------------
G|---------------------------------------------------
D|---------------------------------------------------
A|---------------------------------------------------
E|---------------------------------------------------

E|---9b11=11=11=11=11=11=11=11=11=11=11=11=11=11=11=11=
B|-7-------------------------gradual-release-----------
G|-----------------------------------------------------
D|-----------------------------------------------------
A|-----------------------------------------------------
E|-----------------------------------------------------

E|=11=11=11=11=11=11=11=11=11=11=11=9-7h9p7---7---7--------
B|------------------------------------------9---7---10b12~-
G|---------------------------------------------------------
D|---------------------------------------------------------
A|---------------------------------------------------------
E|---------------------------------------------------------

E|-7----------------------------7-----------------------
B|-7-10p7------10---------------7-10~-7-10~-7-10b12---7-
G|--------9/11----11-9/7---9b11---------------------7---
D|-----------------------9------------------------------
A|------------------------------------------------------
E|------------------------------------------------------

E|-7-7-9-7-9---10p7--------------------------
B|-7-7-9-7-9--------10p7------10-------------
G|-7-7-9-7-9-------------9/11----11-9/7------
D|--------------------------------------9-9~-
A|-------------------------------------------
E|-------------------------------------------


E|------7---------------------------
B|------7-10~-----------------------
G|-9b11--------7b8~-----------------
D|------------------9---------------
A|--------------------9h11p9-9h11p9-
E|----------------------------------

3rd solo:

E|----------------------------10---12b14=14r12-10-12-
B|-12-12-10-12~-10-12~-10-12~------------------------
G|---------------------------------------------------
D|---------------------------------------------------
A|---------------------------------------------------
E|---------------------------------------------------

E|-10-12-12b14-12b14-12b14-12b14-12b14~==14r12p10-12b14-12b14-10----
B|---------------------------------------------------------------12-
G|------------------------------------------------------------------
D|------------------------------------------------------------------
A|------------------------------------------------------------------
E|------------------------------------------------------------------

E|-10p7---------------7----7---7------10p7---------------------7-----
B|------10p7-7------7---10---7---10p7------10p7--------------7---10~-
G|-------------9b11-----------------------------9b11r9p7---7---------
D|-------------------------------------------------------9-----------
A|-------------------------------------------------------------------
E|-------------------------------------------------------------------

E|----------------7--------------------------10-10-10-10-10-7-
B|--------------7-----10-10-10-7-------------10-10-10-10-10-7-
G|-7b8~-------7------------------9-7---------10-10-10-10-10-7-
D|------7h9-9------------------------9-9p7---9--9--9--9--9----
A|-----------------------------------------9------------------
E|------------------------------------------------------------

E|------7---------------------------
B|------7-10~-----------------------
G|-9b11--------7b8~-----------------
D|------------------9---------------
A|--------------------9h11p9-9h11p9-
E|----------------------------------
Comments