Vaughan Stevie Ray - Honey Bee Chords & Tabs

 

Honey Bee Chords & Tabs

Vaughan Stevie Ray Chords & Tabs

Version: 1 Type: Tab 0 ratings
1 star 2 stars 3 stars 4 stars 5 stars
comments

Honey Bee Tab

   
     Stevie ray Vaughan
Honey Bee

Gtr I (Eb Ab Db Gb Bb Eb) - 'SRV'

 Intro
  Q=120(8=s8)
  N.C.
 4/4
  Gtr I
|------7------9-7h8p7----7------|------5-7-6-5-3-5---------|
|----7---10-7---------10---10-7-|----5---------------------|
|-/8----------------------------|-/6-----------------------|
|-------------------------------|------------------7-5---7-|
|-------------------------------|----------------------7---|
|-------------------------------|--------------------------|


                                              1st Verse
  E  E7                   E
|-0--/4-4-4-4-4-4-------|-0-----------0-x-0-||-x-------0-|
|-0--/3-3-3-3-3-3-------|-0-----------0-x-0-||-x-------0-|
|-1--/4-4-4-4-4-4-------|-1-----------1-x-1-||-x-------1-|
|-2---------------2-0---|-2-----------2-x-2-||-x-------2-|
|---------------------2-|---0-0h1-1-2-------||-----------|
|-----------------------|-------------------||-----------|


|-x-----0-x-0-|-x-----0-x-0-|-x-----0-x-0-|
|-x-----0-x-0-|-x-----0-x-0-|-x-----0-x-0-|
|-x-----1-x-1-|-x-----1-x-1-|-x-----1-x-1-|
|-x-----2-x-2-|-x-----2-x-2-|-x-----2-x-2-|
|-------------|-------------|-------------|
|-------------|-------------|-------------|


|-x-----0-x-0-|-x-----0-x-0-|-x--------|-------------||
|-x-----0-x-0-|-x-----0-x-0-|-x--------|-------------||
|-x-----1-x-1-|-x-----1-x-1-|-x--------|-------------||
|-x-----2-x-2-|-x-----2-x-2-|-x--------|-------------||
|-------------|-------------|----------|-------------||
|-------------|-------------|----------|------0-3-4--||


 Chorus
  $
  A
|-----------------|-----------------|-----------------|------------------|
|-----------------|-----------------|-----------------|------------------|
|-2-2-----2-2---0-|-2-------------0-|---------------0-|---------------0--|
|-2-2-4-2-2-2-4-0-|-2-2-4-2-2-2-4-0-|-2-2-4-2-2-2-4-0-|-2-2-4-2-2-2-4-0--|
|-0-0-0-0-0-0-0---|-0-0-0-0-0-0-0---|-0-0-0-0-0-0-0---|-0-0-0-0-0-0-0----|
|-----------------|-----------------|-----------------|------------------|


                                      B
|-----------------|-----------------|----------|--------------||
|-----------------|-----------------|----------|------------3-||
|---------------0-|---------------0-|----------|------2-2S4---||
|-2-2-4-2-2-2-4-0-|-2-2-4-2-2-2-4-0-|-4--------|--------------||
|-0-0-0-0-0-0-0---|-0-0-0-0-0-0-0---|-2--------|--------------||
|-----------------|-----------------|----------|--------------||


 Guitar Solo
  E7
|--0-0-0--0-0-0--0-0-0--0-0-0-|----0------0------0---------|
|-/3-3-3-/3-3-3-/3-3-3-/3-3-3-|-/5---5-/5---5-/5---5-------|
|-/4-4-4-/4-4-4-/4-4-4-/4-4-4-|----------------------2p0---|
|-----------------------------|--------------------------2-|
|-----------------------------|----------------------------|
|-----------------------------|----------------------------|


                 To Coda
|---0------0-3-0---------|---0-----0-(0)-----0-----0-|
|-----3b5----------------|-----3b5-------3b4---3b4---|
|----------------\2p0----|---------------------------|
|---------------------2--|---------------------------|
|------------------------|---------------------------|
|-0----------------------|-0-------------------------|


  A
|------5------5-----5-5-----5-5-|-----5-------5-------5---------|
|----5------5-------5-5-----5-5-|-7b8---5-7b8---5-7b8---5-------|
|-/6-----/6-----7b9-----7b9-----|-------------------------2p0---|
|-------------------------------|-----------------------------2-|
|-------------------------------|-------------------------------|
|-------------------------------|-------------------------------|


  E
|---0------0------------|---0-----0-0-0-----0-0-|
|-----3b5----3-0--------|-----3b5-0-0-0-3b4-----|
|----------------\2p0---|-----------------------|
|---------------------2-|-----------------------|
|-----------------------|-----------------------|
|-0---------------------|-0---------------------|


  B                                 A
|------7-9-8-7------7---------7-7-|----5-5-7-6--5--------|
|----7---------9b10---9b10----7-7-|----5-5--------8----0-|
|-/8-----------------------/8-----|-/6-----------------0-|
|---------------------------------|-----------------7\---|
|---------------------------------|----------------------|
|---------------------------------|----------------------|


  E
|-0----------------------|-0---------------------------|
|-0-0-/3-3-3-3-3-3-------|---0-3b5-0-0-3b5-0-0-3b5-0-0-|
|-1-0-/4-4-4-4-4-4-2p0---|-----------------------------|
|-2--------------------2-|-----------------------------|
|------------------------|-----------------------------|
|------------------------|-----------------------------|


|---------------------------------|-------------------------------|
|-3b5-0-0-3b5-0-0-3b5-0-0-3b5-0-0-|-3b5-0-0-3b5-0-0-3b5-0-0-------|
|---------------------------------|-------------------------2p0---|
|---------------------------------|-----------------------------2-|
|---------------------------------|-------------------------------|
|---------------------------------|-------------------------------|


                                                  A
|---0---------3b5--3-0---|---------------0--0-0-|----0--0-0-0-0-0-0-0-|
|-----3b5-0-0----------0-|------------------0-0-|----5--5-5-5-5-5-5-5-|
|------------------------|-2p0------------------|-/6-6--6-6-6-6-6-6-6-|
|------------------------|-----2-0-1-2----------|---------------------|
|------------------------|----------------------|---------------------|
|-0----------------------|-------------0--------|---------------------|


  B                         E
|-0-0-0-0-0-0-0-0-0-------|-0-0-------0-------------|
|-7-7-7-7-7-7-7-7-7-------|-0-0-----0---3p0---------|
|-8-8-8-8-8-8-8-8-8-2p0---|-----2b4---------3-2p0---|
|-----------------------2-|-----------------------2-|
|-------------------------|-------------------------|
|-------------------------|-------------------------|

[ Tab from: http://www.guitartabs.cc/tabs/v/vaughan_stevie_ray/honey_bee_tab.html ]
                            Outro Guitar Solo
             D.S. al Coda &
                                                     A
|-------------------------||---0------0-0-0--------|--0-0-0-0-0-0-0-0-0-0-0-0--|
|-------------------------||-----3b5----3------5-5-|-/5-5-5-5-5-5-5-5-5-5-5-5--|
|-------------------------||----------------/6-----|-/6-6-6-6-6-6-6-6-6-6-6-6--|
|-0-1-2-1h2p1h2p1h2p1h2---||-----------------------|---------------------------|
|-------------------------||-----------------------|---------------------------|
|-------------------------||-0---------------------|---------------------------|


  B                               E
|-0-0-0-0-0-0--0--0--0--0--0--0-|-------12-12-12-12-12-------12-12-12-------|
|-7-7-7-7-7-7-14-14-14-14-14-14-|-------12-12-12-12-12-------12-12-12-15b17-|
|-8-8-8-8-8-8-------------------|-14b16----------------14b16----------------|
|-------------------------------|-------------------------------------------|
|-------------------------------|-------------------------------------------|
|-------------------------------|-------------------------------------------|


                        ~~
|-12-------------------------------12-12-|
|----15-12-------------------------12-12-|
|----------15p14-12----12----14b16-------|
|-------------------14----14-------------|
|----------------------------------------|
|----------------------------------------|


|-15b17---15-12-----------12----|---------12-15----17b19==(17)r-17b19-|
|----------------------12----12-|-15b17---------17--------------------|
|----------------14b16----------|-------------------------------------|
|-------------------------------|-------------------------------------|
|-------------------------------|-------------------------------------|
|-------------------------------|-------------------------------------|


|-17p15-----------0-------0-|-(0)-----------0-0-0---0-|
|-------17----------0-3b5-0-|-(0)-----------0-0-0-0-0-|
|----------\2-0-------------|-----2b4r2p0-------------|
|---------------------------|-------------2-----------|
|---------------------------|-------------------------|
|---------------0-----------|-------------------------|


  A                             B
|----0-0----0-0----0-0----0-0-|----0-0-/9-9-9-(9)-8---7-7-|
|----5-5----5-5----5-5----5-5-|----7-7----7-------7---7---|
|-/6-----/6-----/6-----/6-----|-/8--------8---------8-----|
|-----------------------------|---------------------------|
|-----------------------------|---------------------------|
|-----------------------------|---------------------------|


  E
|-----------0-(0)----------|-0-----------------0-------0-|
|-----------0-(0)-3p0-3b5--|-0-3-0---------------0-3b5---|
|-2p0---0h1----------------|-------3-2p0-----------------|
|-----2--------------------|-------------2-(2)-----------|
|--------------------------|-----------------------------|
|--------------------------|-----------------------------|


  A
|-3b4-0-0----0-0----0-0----0-0-|----0-0----0----0----0-------|
|------------0-0----0-0----0-0-|----0-0----0----0----0-------|
|---------/4-----/4-----/4-----|-/4-----/4---/4---/4---2p0---|
|------------------------------|---------------------------2-|
|------------------------------|-----------------------------|
|------------------------------|-----------------------------|


  E
|---0--------0-------------|---0-------0-0-0-----0-0-|
|-----0-3b5----3-0---------|-----0-3b5-0-0-0-3b5-----|
|------------------3p2p0---|-------------------------|
|------------------------2-|-------------------------|
|--------------------------|-------------------------|
|-0------------------------|-0-----------------------|


  A                             B
|--0-0-0--0-0-0--0-0-0--0-0-0-|-----------------------------------------|
|-/8-8-8-/8-8-8-/8-8-8-/8-8-8-|-/10-10-10-/10-10-10-/10-10-10-10-10-10S=|
|-/9-9-9-/9-9-9-/9-9-9-/9-9-9-|-/11-11-11-/11-11-11-/11-11-11-11-11-11S=|
|-----------------------------|-----------------------------------------|
|-----------------------------|-----------------------------------------|
|-----------------------------|-----------------------------------------|


  E
|-------------------------------------|
|-15-15-15-15-15-15S17-17-17-17-17-17-|
|-16-16-16-16-16-16S18-18-18-18-18-18-|
|-------------------------------------|
|-------------------------------------|
|-------------------------------------|


                                             A
                                     ~~~~~~
|-------12-12-------12-12------------------|-15-17b19==(17)--17--17---|
|-14b15-12-12-14b15-12-12-15b17==15-15-15r-|--------------------------|
|------------------------------------------|--------------------------|
|------------------------------------------|--------------------------|
|------------------------------------------|--------------------------|
|------------------------------------------|--------------------------|


                                              E
   ~~~~~~~~~~~~~~~~~~~~~~~~~~~~~~~~            ~~~~~
|-17-17-17r17b18==17-17r(17)-17-17-19-17----|-------0-0-0-0-0-0-------------|
|----------------------------------------17-|-17-17-0-0-0-0-0-0-------------|
|-------------------------------------------|-------------------2b3r(2)p0---|
|-------------------------------------------|-----------------------------2-|
|-------------------------------------------|-------------------------------|
|-------------------------------------------|-------------------------------|


                                A7               B7
|---0-------------------------|---3--3p0-5-5-5-|-----2---2----|
|-----0-3b5-0-0---------------|---2--2p0-2-2-2-|--------------|
|---------------3p2p0---------|----------------|---2---2---2--|
|---------------------2-0-1-2-|----------------|--------------|
|-----------------------------|-0--------------|-2------------|
|-0---------------------------|----------------|--------------|


  E                          F9E9
|---3b5--0-------------|-----8-7-(7)----|-(7)-------------*|
|----------0-----------|-----8-7-(7)----|-(7)-------------*|
|------------3p2p0-----|-----7-6-(6)----|-(6)-------------*|
|------------------2-0-|-----7-6-(6)----|-(6)-------------*|
|----------------------|-7---8-7-(7)----|-(7)------7-7-7--*|
|-0--------------------|---0---0-(0)----|-(0)-------------*|



Comments