Vaughan Stevie Ray - Dirty Pool Chords & Tabs

 

Dirty Pool Chords & Tabs

Vaughan Stevie Ray Chords & Tabs

Version: 1 Type: Tab 1 rating
1 star 2 stars 3 stars 4 stars 5 stars
comments

Dirty Pool Tab

Title: 		Dirty Pool
Band: 		Steve Ray Vaughan
Transcribed By:	SRVfan2004
My Email:	         shylanl@hotmail.com or testuber@yahoo.co.uk
Parts:		Whole song

semi clean tone

tremolo pick= # for simplicity

E|--------10-10----10--------------10-12-12/13\12-10-12------
B|------10---10----10--------------10-12-12/13\12-10-12------
G|-12b11-----10----10--------------10-12-12/13\12-10-12------
D|-----------12#---12-12-12-10tr12---------------------------
A|------------------------------------------------------10h12
E|-----------------------------------------------------------

E|----------10-----10-------10-----10-12-10-12/13\12-10------
B|----------10-----10-12----10-----10-12-10-12/13\12-10-12---
G|----------10-----10-12----10-----10-12-10-12/13\12-10-12---
D|-10b11-12-12#----------12-----12---------------------------
A|------------------------------12---------------------------
E|-----------------------------------------------------------

E|---------10\---3-------3-----3-3---------3------3---3------
B|------10-10\---3---6b7--3----3-----------3-----3--6---6b7--
G|-12b14---------3---------5b6-----5b6-3---3--5b6------------
D|---------------5#----------------------5-5#----------------
A|-----------------------------------------------------------
E|-----------------------------------------------------------

E|-3-5-3h4p3---3-----------------10--12-10-------10-5--------
B|-----------6---3-6p3---3-------10--10-10-------10-5------5-
G|---------------------5---------10#-10-10-12b14----5--7b8---
D|-------------------------0------------------------7#-------
A|-----------------------------------------------------------
E|---------------------------\10-----------------------------

E|-5-----5-7-5h6p5---5---------5--------------3--------------
B|---8b9-5---------8---8p5----5--8-5----------3--------------
G|-------------------------7b8------7b8-7p5---3--------------
D|------------------------------------------7-5#-------------
A|---------------------------------------------------3b4-4-5-
E|-----------------------------------------------3-6---------

E-------5--5-3-------------10-10-10-10--------10----10-12----
B-----5-5--5-3-------------10-10-10-10--10-12-10----10-12----
G-----5-5--5-3-------------10-10-10-10#-10-12-10----10-12----
D-3-5----------5-3---3---------------------------12----------
A------------------5---5-------------------------------------
E------------------------0-----------------------------------

                                  rake
E-12b13-12-10----10-10-10-10---10----------------------------
B-12b13-12-10----10-10-10-10---10-x------------13---13-------
G-12b13-12-10----10-10-10-10#--10--x-----------12---12-12p10-
D-------------12--------------------x----------10---10-------
A-------------------------------------10-11-12-12#--12-------
E------------------------------------------------------------

                                                       rake
E----10--10\----3-------1---/5--/10--/17-\5-------3--3-x-----
B----10--10\----3-------3---/6--/10--/18-\6--3----3--3-x-----
G----10#-10\----3-------2#--/7#-/10#-/19-\7#-3----3--3-x-----
D-12---------3--5#---0-----------------------5#---5#-3-x-----
A--------------------0#--------------------------------------
E------------1-----------------------------------------------

E--------3------------1--------------10---------10-----------
B--------3------------3--------------10-------10---13p10-----
G--------3--------3---2#-----5b6-7---10#-12b13----------12b14
D----3h5-5#-------3--------7-------5-------------------------
A-3h5---------3h5---0--------------5-------------------------
E-------------------0----------------------------------------

E--------------------------------------------5----5---4---3--
B--------------------------------------------5----5-5-4---3--
G-12p10------------------12tr10-x------------5--5-5-5-4---3--
D-------12-12tr10-12tr10-12tr10--x-----------7#-7---7---6-3#-
A---------------------------------10-11-12-0-----------------
E------------------------------------------------------------

E-10-10-10--10--10/12---10-10b11--12-10-12-10--10-x----------
B-10-10-10--10--10/12---10-10b11--12-10-12-10--10--x---------
G-10-10-10--10#-10/12#--10-10b11--12-10-12-10--10---x--------
D-12-12-12---------------------------------12#-12-----10-----
A-----------------------------------------------------10-11--
E------------------------------------------------------------

E----------------10-----10\------3------1--3-1-1-1-----------
B----13----------10-----10\------3------3--5-3-3-3-----------
G----12----10----10-----10\------3------2#-4-2-2-2-----------
D----10------12--12#----12\--3-5-5#-------------------10b11--
A-12-12#---------------------3-5------0-------------12------x
E------------------------------------------------------------

E----10----10-12--10-12--12-10-12-10----10----10-----3---3---
B----10----10-12--10-12--12-10-12-10----10----10-----3---3---
G----10----10-12--10-12--12-10-12-10----10----10-----3---3---
D-12----12---------------------------12----12----3/5---5-3#--
A-------12---------------------------------12----------------
E------------------------------------------------------------

E-----3---10--10------------------------------------------10-
B-----3---10--10------------------------------------10-13----
G-----3---10#-10-------------------------------10-12---------
D-5---5#---------12-------------------10b13-12---------------
A-x--------------------------10-11-12------------------------
E-3#----------------10-13b14---------------------------------

E-10h12p10---10-------------------10------10-----------------
B----------13---13-10-------------10----10---13p10-----------
G---------------------12b14p10----10--12-----------12b14-----
D------------------------------12-12#------------------------
A------------------------------------------------------------
E------------------------------------------------------------
[ Tab from: http://www.guitartabs.cc/tabs/v/vaughan_stevie_ray/dirty_pool_tab.html ]
E---------------------------------------------5-5-------3----
B---------------------------------------------5-5-------3----
G-12p10----10h12p10-------10h12---------------5-5-------3----
D-------12----------12-12-10h12-10tr12-5--6-7---7#-3/5--5#---
A------------------------------------------------------------
E--------------------------------------------------1/3-------

E----------------10-10---------10-13b14b15-13b15-13~-10------
B----------------10-10-------10-------------------------13-10
G----------------10-10#-12b13--------------------------------
D----10b(1/4)-12---------------------------------------------
A-12---------------------------------------------------------
E------------------------------------------------------------

E--------10----------------------------------------------10--
B------10---13p10----------------------------------------10--
G-12b14-----------12b14-12p10----10h12p10----------------10--
D-----------------------------12-10h12p10-10-10-10tr12-------
A------------------------------------------------------0-----
E------------------------------------------------------0-----

E-x----------------------------------------------------------
B--x------------13--13---------------------------------------
G---x-----------12--12-10-10---------------------------------
D----x-10-11-12-10--10-10-10---------------------------------
A---------------12#-12-12------------------------------------
E------------------------------------------------------------	

  guitar solo
E---------------------------12---10--------------------------
B----------10--11-/-13--13--12---10--------10-----10---------
G-10---10--12--10-/-14--14--12#--10#--/10--10--10-10--10-----
D-10---12#-10#-12#/-12#-12#-----------/10--12#-10-12#-10-----
A-12#---------------------------------/12#-----12-----12#----
E------------------------------------------------------------	

E-----------------------------------------12--10--12---------
B-10----------------------------------13--12--10--12---------
G-10--10-10--------------10-----10-10-14--12#-10#-12#-----10-
D-12#-10-10------9-------10--10h12-12-12#-------------10--10-
A-----12----10\8-8#------12#--------------------------12#-12#
E------------------------------------------------------------

E------------------------------------------------------------
B---------10--------------10------10------10-----------------
G-----10--10--10--10--10--10--10--10--10--10--10---5--11-13--
D-10--10#-10#-10--10#-10--12#-10--12#-10--12#-10---5---------
A-12#---------12#-----12#-----12#-----12#-----12#--7#--------
E------------------------------------------------------------	

E----x-13--/15--/16-\15--13--15-13--10----------12--10-------
B----x-15--/17--/18-\17--15--15-13#-10#-13--13--12--10--10---
G-14-x-14#-/16#-/17-\16--14#------------14#-14--12#-10#-10---
D-------------------------------------------12#---------12#--
A------------------------------------------------------------
E------------------------------------------------------------

             end solo       
E---------10-----------------------------10---10----10-------
B-----10--10-x------------10---10--------10---10----10-------
G-10--10--10--x-----------12---12--12----10---12b14----12p10-
D-10--12#------x----------10---10--10----12#-----------------
A-12#------------10-11-12-12#--12--12------------------------
E-------------------------------------10---------------------

E-----3---10-10--------10-------10---------10-10-------10----
B-----3---10-10------10---13b14-10-10-13b14---10-13b14---10--
G-----3---10-10-12b13----------------------------13b14-------
D-12\-5#-----------------------------------------------------
A------------------------------------------------------------
E------------------------------------------------------------

E--------10----------------------------------10---------10---
B------10---13-10----------------------------10-------10-----
G-12b14-----------12b13-12p10----10h12p10----10--12b14-------
D-----------------------------12----------12-12#-------------
A-----------------------------12-----------------------------
E------------------------------------------------------------	

E-13b15-13~-10-----------------------3--x--------------3-----
B--------------13p10-----------------3---x-------------3-----
G--------------------12b13-----------3----x------------3-----
D--------------------------12tr10-5--5#----x---3b4-5---5#----
A--------------------------------------------5-------5----0--
E---------------------------------3--------------------------

E-1-1----10----10-12-------10----------------------10-12-----
B-3-3----10----10-12-12b13-10-12b13-10-------------10-12-12b13
G-2-2----10----10-12-12b14----12b14-10-10h12p10----10-12-12b14
D-----12----12----------------------------------12-----------
A------------------------------------------------------------
E------------------------------------------------------------

E-------------10----13-10-13-12-10---------------------------
B-10----------10-10-13-10-13-12-10----10-12b13-12p10----12-10
G-10-12p10----10-10-------13-12-10----10-12b13-12p10----12-10
D----12----12----------------------12----------------12------
A------------------------------------------------------------
E------------------------------------------------------------	

E----------------------------------5--5-5-4-3---15\----------
B----------------------------------5--5-5-4-3---15\----10-10-
G----------------10----------12-x--5--5-5-4-3--------12------
D-12-10-12-10-12-10----------12-x--7#-7-7-6-5----------------
A-------------------10-11-12-12-x----------------------------
E------------------------------------------------------------

E---10-13-10~--------------------------------15-16/17--17\---
B-13----------13-10--------------------------15-16/17--17\---
G------------------12b14-12b14-12b13-12p10---14-15/16--16\---
D--------------------------------------------13-14/15#-15\---
A------------------------------------------------------------
E------------------------------------------3-----------------	
								
Comments