Vast - Where It Never Rains Chords & Tabs

 

Where It Never Rains Chords & Tabs

Vast Chords & Tabs

Version: 1 Type: Tab

Where It Never Rains Tab

Vast - Where it never rains (Intro)
Tabbed by GOLDZWEIG
Standard Tuning

Intro

e|---------------------------------------------|
B|---------------------------------------------|
G|---------------------------------------------|
D|-------7----7---7---7--5--3--2---------------|
A|-----5---10---8--10-------------0--3--7------|
E|---------------------------------------------|


e|---------------------------------------------|
B|-------------------------------5/4p0-(fast)--|
G|---------------------------------------------|
D|-------7----7---7---7--5--3--2---------------| x7
A|-----5---10---8--10------------------0--3--7-|
E|---------------------------------------------|
[ Tab from: http://www.guitartabs.cc/tabs/v/vast/where_it_never_rains_tab.html ]
e|------------------------------------------------------------------------------|
B|------------------------------------------------------------------------------|
G|-----10------10-------9-------9------12------12-------9---10---9--------------|
D|---0---0---0----0---0---0---0---0---0---0---0---0---0---0----0----------------|x3
A|-0-------0--------0-------0-------0-------0-------0---------------------------|
E|------------------------------------------------------------------------------|

e|---------------------------------------------|
B|---------------------------------------------|
G|---------------------------------------------|
D|-------7----7---7---7--5--3--2--10p0---------| x2
A|-----5---10---8--10------------------0--3--7-|
E|---------------------------------------------|