Vast - Turquoise Chords & Tabs

 

Turquoise Chords & Tabs

Vast Chords & Tabs

Version: 1 Type: Tab 0 ratings
1 star 2 stars 3 stars 4 stars 5 stars
comments

Turquoise Tab

TURQUOISE
VAST
from NUDE

intro & verse riff:
-----------------------------------------------------------------|
-----------------------------------------------------------------|
-----------------------------------------------------------------|
-----------------------------------------------------------------|
-----------------------------------------------------------------|
-4-4-4-4-7-7-4-4-7-7-4-4-4-4-4-------4-4-7-7-4-4-7-7-4-4-4-4-4-4-|

Looking for a penny on an empty beach
I've been looking for a lover who has eyes to see
While I'm here I wanna walk with you, hold your hand
In the sun, In the sun
In the sun, IN THE SUN

Chorus:
--------------------------4-------------4----|
-8-------(9)-9-----(8-9)--4------8------5----|
-8-----------8------------4------8------6----|
-8-----------9------------6------8------6----|
-6-----------7------------6------6------4----|
--------------------------4------------------|
   Turquoise is the color I need to get clean
The forest burns, and with it something inside me

[ Tab from: http://www.guitartabs.cc/tabs/v/vast/turquoise_tab.html ]
-4---2-/-4-----------------|
---------------------------|
-------------4-----1---1---|
---------------------------|
---------------------------|
---------------------------|X2

Verse:
Looking for a way to leave the world today
But the world is gonna leave us all anyway
While I'm here I wanna walk with you, hold your hand
In the sun, In the sun
IN THE SUN

Chorus: (same)

then
-4---2-/-4-----------------------------2------------------|
---------------------------0------------------------------|
-------------4-----1---1-------3-/-4-------3--------------|
-------------------------------------------------4---4----|
----------------------------------------------------------|
----------------------------------------------------------|
play it 2times before:
Together
Together
Together
Together
Together
IN THE SUN

Chorus:
...I need to get clean
...I need ...I need ...I need
Turquoise is the color I need to get clean
The forest burns, and with it something inside me

End with verse riff:
Looking for a way to leave the world today

:)
Comments