Vast - Last One Alive Chords & Tabs

 

Last One Alive Chords & Tabs

Vast Chords & Tabs

Version: 1 Type: Bass Tab 0 ratings
1 star 2 stars 3 stars 4 stars 5 stars
comments

Last One Alive Bass Tab

   
Tabbed by: devilchyld
Artist: VAST
Song: The Last One Alive

Look at bottom for order of riffs played.

RIFF 1

G|-----7---9-7-----|-----------------|
D|---9---9-----9-7-|-9-9-------------|
A|-----------------|-----------------|
E|-----------------|-----------------|
B|-----------------|-----------------|

RIFF 2

G|-----7---9-7-----|-----------------|
D|---9---9-----9-7-|-9-9\------------|
A|-----------------|-----------------|
E|-----------------|-----------------|
B|-----------------|-----------------|

RIFF 3

G|-----7---9-7-----|-9-9-------------|-----------------|-
D|---9---9-----9-7-|-------9---6-----|-----------------|-
A|-----------------|---------------7-|-7---5-7---5\----|-
E|-----------------|-----------------|-----------------|-
B|-----------------|-----------------|-----------------|-

G|-------------------|--------------------|
D|-------------------|--------------------|
A|----------------10-|--10------10--------|
E|-3-3-3/7---10------|-------10------10\--|
B|-------------------|--------------------|

RIFF 4

G|-----------------|-----------------|-----------------|
D|-----------------|-----------------|-----------------|
A|-----------------|-----------------|-----------------|
E|-0-0-0-0-0-0-0-0-|-3-3-3-3-3-3-3-3-|-5-5-5-5-5-0-5-5-|
B|-----------------|-----------------|-----------------|

RIFF 5

G|-9-9-9-----------|-----------------|-------------------|-
D|-------9-9-9-6-6-|-----------------|-------------------|-
A|-----------------|-7-7-7-5-7-7-5---|-------------------|-
E|-----------------|-----------------|-3-3-3/7-7-7-10-10-|-
B|-----------------|-----------------|-------------------|-

G|-----------------------|
D|-----------------------|
A|-10-10-10----10-10-----|
E|----------10-------10\-|
B|-----------------------|

RIFF 6

G|-----------------|-----------------|-----------------|-
D|-----------------|-----------------|-----------------|-
A|-----------------|-----------------|-----------------|-
E|-----------------|-5-5-5-5-5-5-5-5-|-7-7-7-7-7-7-7-7-|-
B|-3-3-3-3-3-3-3-3-|-----------------|-----------------|-

G|-----------------|
D|-----------------|
A|-----------------|
E|-7-7-7-7-7-7-7-7-|
B|-----------------|

RIFF 7

G|-----------------|-----------------|-----------------|-
D|-----------------|-----------------|-----------------|-
A|-----------------|-----------------|-----------------|-
E|-3-3-3-3-3-3-3-3-|-2-2-2-2-2-2-2-2-|-0-0-0-0-0-0-0-0-|-
B|-----------------|-----------------|-----------------|-
[ Tab from: http://www.guitartabs.cc/tabs/v/vast/last_one_alive_btab.html ]
G|-----------------|-----------------|-----------------|
D|-----------------|-----------------|-----------------|
A|-----------------|-----------------|-----------------|
E|-0-0-0-0-0-0-0-0-|-0-0-0-0-0-0-0-0-|-0-0-0-0-0-0-0-0-|
B|-----------------|-----------------|-----------------|

RIFF 8

G|-----------------|-----------------|-----------------|-
D|-----------------|-----------------|-----------------|-
A|-----------------|-----------------|-----------------|-
E|-7-7-7-7-7-7-7-7-|-4-4-4-4-4-4-4-4-|-----------------|-
B|-----------------|-----------------|-5-5-5-5-5-5-5-5-|-

G|-----------------|-----------------|-----------------|-
D|-----------------|-----------------|-----------------|-
A|-----5---7-5-----|-----------------|-----------------|-
E|---7---7-----7-5-|-7-7-7-7-7-7-7-7-|-----------------|-
B|-5---------------|-----------------|-5-5-5-5-5-5-5-5-|-

G|-----------------|-----------------|
D|-----------------|-----------------|
A|-----------------|-5-5-5-5---------|
E|-3-3-3-3-3-3-3-3-|---------9-9-9-9-|
B|-----------------|-----------------|

RIFF 9

G|-----------------|-----------------|-----------------|-
D|-----------------|-----------------|-----------------|-
A|-----------------|-----------------|-----------------|-
E|-7-7-7-7-7-7-7-7-|-4-4-4-4-4-4-4-4-|-----------------|-
B|-----------------|-----------------|-5-5-5-5-5-5-5-5-|-

G|-----------------|-----------------|-----------------|-
D|-----------------|-----------------|-----------------|-
A|-----5---7-5-----|-----------------|-----------------|-
E|---7---7-----7-5-|-7-7-7-7-7-7-7-7-|-----------------|-
B|-5---------------|-----------------|-5-5-5-5-5-5-5-5-|-

G|-----------------|-----------------|
D|-----------------|-----------------|
A|-----------------|-5-5-5-5-5-5-5-5-|
E|-3-3-3-3-3-3-3-3-|-----------------|
B|-----------------|-----------------|

RIFF 10

G|-----------------|-----------------|-----------------|-
D|-----------------|-----------------|-----------------|-
A|-----------------|-----------------|-----------------|-
E|-3-3-3-3-3-3-3-3-|-2-2-2-2-2-2-2-2-|-0-0-0-0-0-0-0-0-|-
B|-----------------|-----------------|-----------------|-

G|-----------------|-----------------|-----------------|
D|-----------------|-----------------|-----------------|
A|-----------------|-----------------|-5h7-7-7-7-7-7-7-|
E|-0-0-0-0-0-0-0-0-|-0-0-0-0-0-0-0-0-|-----------------|
B|-----------------|-----------------|-----------------|

ENDING

G|-----------------|
D|-----------------|
A|-----------------|
E|-7---------------|
B|-----------------|


RIFF 1 X1
RIFF 2 X1
RIFF 1 X2
RIFF 2 X1
RIFF 3 X1
RIFF 1 X1
RIFF 4 X1
RIFF 5 X2
RIFF 6 X3
RIFF 7 X1
RIFF 8 X1
RIFF 9 X1
RIFF 5 X2
RIFF 6 X3
RIFF 10 X1
RIFF 8 X2
ENDING X1
Comments