Vast - Lady Of Dreams Chords & Tabs

 

Lady Of Dreams Chords & Tabs

Vast Chords & Tabs

Version: 1 Type: Chords 0 ratings
1 star 2 stars 3 stars 4 stars 5 stars
comments

Lady Of Dreams Chords

Here is a very kicked back, beautiful song. I learned how to play it from
the other tab here on this site, but they didnt sound quite right..
The progressions were correct, but the key was off, and a few of the chord
intervals were off....thus I made this for anyone who wants to learn. 
  



    6x for into only.
e|--00--00--00--00--00--00-------55-00--00-------55-----------------|
B|---------------------------00--------------00------99-------------|
G|-------------------------------66--------------66-----------------|
D|--66--66--66--66--66--66------4---66--66------4----99-------------|
A|4---4---4---4---4---4------66----4---4-----66-----7---------------|
E|--------------------------4--------------4------------------------|
[ Tab from: http://www.guitartabs.cc/tabs/v/vast/lady_of_dreams_crd.html ]
e|----------------------00-------55-00--00-------55-----------------|
B|---------------------------00--------------00------99-------------|
G|-------------------------------66--------------66-----------------|
D|----------------------66------4---66--66------4----99-------------|
A|--------------------4------66----4---4-----66-----7---------------|
E|--------------------------4--------------4------------------------|

     (2x) through then go back to beginning
e|--66--------------------------------------------------------------|
B|------------99----------------------------------------------------|
G|--66---66--------88-----------------------------------------------|
D|-4----------99----------------------------------------------------|
A|-------77--7-----99-----------------------------------------------|
E|-----5----------7-------------------------------------------------|


Comments