Vast - Free Chords & Tabs

 

Free Chords & Tabs

Vast Chords & Tabs

Version: 2 Type: Tab 0 ratings
1 star 2 stars 3 stars 4 stars 5 stars
comments

Free Tab

Artist:Vast
Song: Free
tabbed by: Eyes-radio lies


This is a very good song of vast and not so hard to play. I had the help of my 
guitar teacher who's pretty  good so this tabs is correct

Intro riff

E|-------------------------------------------------
B|-------------------------------------------------
G|----9-----9-9---9-9------------------------------
D|----9-----9-9---9-9------------------------------
A|----7-----7-7---7-7---5h7-5h7-8-7-5h7------------
E|----0-----0-0---0-0------------------------------


Chorus and outro riff (didn't write the rythm)
[ Tab from: http://www.guitartabs.cc/tabs/v/vast/free_tab_ver_2.html ]
E|-------------------------------------------------
B|-------------------------------------------------
G|------4------------------------------------------
D|--2---4--4---2-----------------------------------
A|--2---2--4---2-----------------------------------
E|--0------2---0-----------------------------------

Verse riff

E|-------------------------------------------------------
B|-------------------------------------------------------
G|-------------------------------------------------------
D|-------------------------------------------------------
A|----7-7-5h7----7-7--5h7-----7-7---5h7-5h7-5h7-8-7-5h7--
E|--0---------0------------0-----------------------------

For questions, suggestions, correctrion e-mail me at halflife_menard@hotmail.com
Comments