Vast - Free Chords & Tabs

 

Free Chords & Tabs

Vast Chords & Tabs

Version: 1 Type: Bass Tab 0 ratings
1 star 2 stars 3 stars 4 stars 5 stars
comments

Free Bass Tab

band: vast	
song: free
author: baz (bazapotamus@hotmail.com)
note: just play with the cd and fit in the riffs u'll get it! Im still not sure of the chorus

W W W . B A S S C R A W L E R . C O M

intro / verse 1

G|-----------------------||
D|-----------------3-----o|
A|-----.---.----3h5-5p3--o|
E|-0-000-000-3h5-------5-||

chorus/synth solo
[ Tab from: http://www.guitartabs.cc/tabs/v/vast/free_btab.html ]
G|----------------------------------||
D|----------------------------------o|
A|-77777777777--------/999999-------o|
E|------------77777777--------------||

rest of the verses

G|---------------------------------------------||
D|-------------------------------5-------------o|
A|---7-5h7---7-5h7---7-5h7----5h7-7p5----------o|
E|-0-------0-------0-------5h7-------7---------||

W W W . B A S S C R A W L E R . C O M
    play bass, play basscrawler!


Comments