Vast - Flames Chords & Tabs

 

Flames Chords & Tabs

Vast Chords & Tabs

Version: 3 Type: Tab 0 ratings
1 star 2 stars 3 stars 4 stars 5 stars
comments

Flames Tab

   
----------------------------------PLEASE NOTE---------------------------------#
#This file is the author's own work and represents their interpretation of the #
#song. You may only use this file for private study, scholarship, or research. #
#------------------------------------------------------------------------------##

Flames
By VAST
Tabbed by Patrick McGuire
midpat@home.com

Standard Tuning


Intro, Verse, Chorus Part A:

e|------0---0-----------0---0-------|-----0---0-----------0---0--------|
B|----------------------------------|----------------------------------|
G|----------------------------------|----------------------------------|
E|----0---0---0---0---0---0---0---0-|---2---2---2---2---2---2---2---0--| x8
A|--2-----------2---2-----------2---|-0-----------0---0-----------0----|
E|----------------------------------|----------------------------------|
[ Tab from: http://www.guitartabs.cc/tabs/v/vast/flames_tab_ver_3.html ]
Chorus Part B:
e|------0---0-----0-----0---0-----0-|-----0---0-----0-----0---0-----0--|
B|------------3---------------3-----|-----------3---------------3------|
G|--------------0---------------0---|---2---2-----2---------------2----|
D|----------------------------------|-0-----------------2---2----------| z2
A|----2---2-----------2---2---------|-----------------0----------------|
E|--0---------------3---------------|----------------------------------|

Then,
Part A- x2
Part B- x4
Part A- x2
Then outro

Outro:
e|------0---3p0-----------7p5-------------0-5-----------------0------|
B|--------------3-------------5---5-----3-----5-3-------2---3---3p2--|
G|----------------0-------------0-----2-----------2------------------|
D|----------------------0-----------0-----------------2---2----------|until end
A|----2---2-----------2-----------------------------0----------------|
E|--0---------------3------------------------------------------------|
Comments