Vast - Flames Chords & Tabs

 

Flames Chords & Tabs

Vast Chords & Tabs

Version: 1 Type: Tab 0 ratings
1 star 2 stars 3 stars 4 stars 5 stars
comments

Flames Tab

                              Vast – Flames
                          |--------------------|
                          |    (0:00-4:36)     |
                          |--------------------|

                         Tabbed by: Aaron Anderson

             I am completely sure that this tab is 100% correct. I went through 
 	 this song with a fine-tooth comb and made the timing exact. The song 
 	 itself is simple, just listen to it for the rhythm. It took me about 4
         hours to write this tabulature so enjoy it.

         Special Thanks to:   

                VAST for they’re great songs
 	         and 
 	        Patrick Mcguire for posting the tabs that I used to make this right.

Intro: 

e|------0---0-----------0---0-------|-----0---0-----------0---0--------|
B|----------------------------------|----------------------------------| 00:00-00:19
G|----------------------------------|----------------------------------|
E|----0---0---0---0---0---0---0---0-|---2---2---2---2---2---2---2---0--| x2
A|--2-----------2---2-----------2---|-0-----------0---0-----------0----|
E|----------------------------------|----------------------------------|

e|------0---0-----------0---0-------|-----0---0-----------0---0--------|
B|----------------------------------|----------------------------------| 00:20-00:39
G|----------------------------------|----------------------------------|
E|----0---0---0---0---0---0---0---0-|---2---2---2---2---2---2---2---0--| x2(With Violin) 
A|--2-----------2---2-----------2---|-0-----------0---0-----------0----|  
E|----------------------------------|----------------------------------|


e|------0---0-----------0---0-------|-----0---0-----------0---0--------|
B|----------------------------------|----------------------------------| 00:40-00:49
G|----------------------------------|----------------------------------|
E|----0---0---0---0---0---0---0---0-|---2---2---2---2---2---2---2---0--|
A|--2-----------2---2-----------2---|-0-----------0---0-----------0----|
E|----------------------------------|----------------------------------|
    close your eyes...     let  me  touch  you  now....

e|------0---0-----------0---0-------|-----0---0-----------0---0--------|
B|----------------------------------|----------------------------------| 00:50-00:59
G|----------------------------------|----------------------------------|
E|----0---0---0---0---0---0---0---0-|---2---2---2---2---2---2---2---0--| 
A|--2-----------2---2-----------2---|-0-----------0---0-----------0----|
E|----------------------------------|----------------------------------|
    let me give you something that is real...

e|------0---0-----------0---0-------|-----0---0-----------0---0--------|
B|----------------------------------|----------------------------------| 1:00-1:09
G|----------------------------------|----------------------------------|
E|----0---0---0---0---0---0---0---0-|---2---2---2---2---2---2---2---0--| 
A|--2-----------2---2-----------2---|-0-----------0---0-----------0----|
E|----------------------------------|----------------------------------|
    close  the  door... leave your fears behind...

e|------0---0-----------0---0-------|-----0---0-----------0---0--------|
B|----------------------------------|----------------------------------| 1:10-1:19
G|----------------------------------|----------------------------------|
E|----0---0---0---0---0---0---0---0-|---2---2---2---2---2---2---2---0--| 
A|--2-----------2---2-----------2---|-0-----------0---0-----------0----|
E|----------------------------------|----------------------------------|
    let  me  give you what your giving me...





___________________________________________________________________________
___________________________________________________________________________

 Chorus:

e|------0---0-----0-----0---0-----0-|-----0---0-----0-----0---0-----0--|
B|------------3---------------3-----|-----------3---------------3------| 1:20-1:39
G|--------------0---------------0---|---2---2-----2---------------2----|
D|----------------------------------|-0-----------------2---2----------| x2(With Violin)
A|----2---2-----------2---2---------|-----------------0----------------|
E|--0---------------3---------------|----------------------------------|


___________________________________________________________________________
___________________________________________________________________________

[ Tab from: http://www.guitartabs.cc/tabs/v/vast/flames_tab.html ]
e|------0---0-----------0---0-------|-----0---0-----------0---0--------|
B|----------------------------------|----------------------------------| 1:40-1:48
G|----------------------------------|----------------------------------|
E|----0---0---0---0---0---0---0---0-|---2---2---2---2---2---2---2---0--| 
A|--2-----------2---2-----------2---|-0-----------0---0-----------0----|
E|----------------------------------|----------------------------------|
    you........	             are the only  thing...

e|------0---0-----------0---0-------|-----0---0-----------0---0--------|
B|----------------------------------|----------------------------------| 1:49-1:58
G|----------------------------------|----------------------------------|
E|----0---0---0---0---0---0---0---0-|---2---2---2---2---2---2---2---0--| 
A|--2-----------2---2-----------2---|-0-----------0---0-----------0----|
E|----------------------------------|----------------------------------|
    that makes me want to love...  at all...

e|------0---0-----------0---0-------|-----0---0-----------0---0--------|
B|----------------------------------|----------------------------------| 1:59-2:08
G|----------------------------------|----------------------------------|
E|----0---0---0---0---0---0---0---0-|---2---2---2---2---2---2---2---0--| 
A|--2-----------2---2-----------2---|-0-----------0---0-----------0----|
E|----------------------------------|----------------------------------|
    when  i am with you...  theres no reason to pretend...

e|------0---0-----------0---0-------|-----0---0-----------0---0--------|
B|----------------------------------|----------------------------------| 2:09-2:18
G|----------------------------------|----------------------------------|
E|----0---0---0---0---0---0---0---0-|---2---2---2---2---2---2---2---0--| 
A|--2-----------2---2-----------2---|-0-----------0---0-----------0----|
E|----------------------------------|----------------------------------|
   that when i am with you...  i feel flames again....

e|------0---0-----------0---0-------|-----0---0-----------0---0--------|
B|----------------------------------|----------------------------------| 2:19-2:28
G|----------------------------------|----------------------------------|
E|----0---0---0---0---0---0---0---0-|---2---2---2---2---2---2---2---0--| 
A|--2-----------2---2-----------2---|-0-----------0---0-----------0----|
E|----------------------------------|----------------------------------|
    just put me inside you... i would never ever leave...

e|------0---0-----------0---0-------|-----0---0-----------0---0--------|
B|----------------------------------|----------------------------------| 2:29-2:39
G|----------------------------------|----------------------------------|
E|----0---0---0---0---0---0---0---0-|---2---2---2---2---2---2---2---0--| 
A|--2-----------2---2-----------2---|-0-----------0---0-----------0----|
E|----------------------------------|----------------------------------|
    just put me inside you... i would never ever leave...






e|------0---0-----------0---0-------|-----0---0-----------0---0--------|
B|----------------------------------|----------------------------------| 2:40-3:00
G|----------------------------------|----------------------------------|
E|----0---0---0---0---0---0---0---0-|---2---2---2---2---2---2---2---0--| x2(With Violin)
A|--2-----------2---2-----------2---|-0-----------0---0-----------0----|
E|----------------------------------|----------------------------------|
     you......				       (Violin)

___________________________________________________________________________
___________________________________________________________________________

 Outro:

e|------0---3p0-----------7p5-------------0-5-----------------0--------|
B|--------------3-------------5---5-----3-----5-3-------2---3---3p2----| 3:01-4:36
G|----------------0-------------0-----2-----------2--------------------|
D|----------------------0-----------0-----------------2---2------------|
A|----2---2-----------2-----------------------------0------------------| x8(With Violin)
E|--0---------------3--------------------------------------------------|

    ** This "outro" is played throughout the rest of the song. **
	     (x1 time length is about 9-10 seconds each)
____________________________________________________________________________
____________________________________________________________________________
	
		Enjoy. If you have any comments / suggestions email me:

				Frost4545@rock.com

				
				~ Aaron Anderson ~
Comments