Vast - Blue Chords & Tabs

 

Blue Chords & Tabs

Vast Chords & Tabs

Version: 2 Type: Tab 0 ratings
1 star 2 stars 3 stars 4 stars 5 stars
comments

Blue Tab

Blue - VAST

Quite an easy arrangement. Some bits may be messy so any
qualms, shoots or tips: fornicular@hotmail.com

By the way (h) is hammer-on

Introduction

e ----4---4-4--4h6h8-4------4---4-4--4h6h8-4------4---4-
B ---------------------4---------------------4----------
G --6---5---3-------------6---5---3-------------6---5---
D ------------------------------------------------------
A ------------------------------------------------------
E ------------------------------------------------------

e 4--4-6-8-4------4---4-4--4h6h8-4-----------4h6h8-4----
B -----------4---------------------4--5-4-2----------4--
G 3-------------6---5---3-------------6-5-3-------------
D ------------------------------------------------------
A ------------------------------------------------------
E ------------------------------------------------------
[ Tab from: http://www.guitartabs.cc/tabs/v/vast/blue_tab_ver_2.html ]
e --4---4-4--4h6h8-4------4---4-4--4h6h8-4------4---4-4-
B -------------------4---------------------4------------
G 6---5---3-------------6---5---3-------------6---5---3-
D ------------------------------------------------------
A ------------------------------------------------------
E ------------------------------------------------------

e -4h6h8-4----
B ---------4--
G ------------
D ------------
A ------------
E ------------


Verse Riff

e ---4---4-4--4h6h8-4----
B --------------------4--
G -6---5---3-------------
D -----------------------
A -----------------------
E -----------------------


Chorus 

e --------------------------------------------
B --------------------------------------------
G ---------5--------------------5-------------
D --6------6-------------6------6-------------
A --4------6------6------4------6------6------
E ----------------6--------------------6------


Horn Bit

e ------------------
B ------------------
G ------------------  this bit x4 
D --3---------------
A -----3--3--4------
E --------------4---



Structure: Intro
           Verse riff x8
           Chorus
           Horn Bit
           Verse riff x8
           Chorus x3
           Horn bit

Lyrics:

Verse
Will you turn my mind away from
All the things I haven't done
Hope is falling away from me
Hope is falling away from me

Chorus
Let's go down with the ship
Lets slip into oblivion
Let's go down with the ship
Let's slip into, let's slip into
The Blue
Comments