Varukers - United We Stand Chords & Tabs

 

United We Stand Chords & Tabs

Varukers Chords & Tabs

Version: 1 Type: Tab 0 ratings
1 star 2 stars 3 stars 4 stars 5 stars
comments

United We Stand Tab

THE VARUKERS - UNITED WE STAND
They are a punk rock band that kicks ass!!

Tabbed by DARSH 

the x's equal palm mutes!
THis is strummed kindof fast

[ Tab from: http://www.guitartabs.cc/tabs/v/varukers/united_we_stand_tab.html ]
|------------------------|
|------------------------|
|--8xx-------------------|
|--6xx-8xx-11x-6---------|
|------6xx--9x-4---------|
|------------------------|

|------------------------|
|------------------------|
|------------------------|
|--8xx-------------------|
|--6xx-8xx-11x-6---------|
|------6xx--9x-4---------|
Comments