Varukers - Protest And Survive Chords & Tabs

 

Protest And Survive Chords & Tabs

Varukers Chords & Tabs

Version: 1 Type: Tab 0 ratings
1 star 2 stars 3 stars 4 stars 5 stars
comments

Protest And Survive Tab

   
-----------------------------------------------------------------------------
			     PROTEST & SURVIVE - The Varukers
-----------------------------------------------------------------------------
Tabbed by: Nate
Email: Nateg1489@aol.com

Intro:
e|---|
B|---|
G|---|
D|-4-|
A|-4-|
E|-2-|
[ Tab from: http://www.guitartabs.cc/tabs/v/varukers/protest_and_survive_tab.html ]
Verse:
e|------------------------------------|
B|------------------------------------|
G|------------------------------------|
D|-4-4-4-4-10-9-9-7-7-7-7-7-7-7-7-----|    X4
A|-4-4-4-4-10-9-9-7-7-7-7-7-7-7-7-----|
E|-2-2-2-2--8-7-7-5-5-5-5-5-5-5-5-----|

Chorus:
e|----------------------|
B|----------------------|
G|---------10-10--10----|
D|-9-9-9-9-10-10--10----|   X4
A|-9-9-9-9--8--8---8----|
E|-7-7-7-7--------------|

Bridge:
e|------------|
B|------------|
G|-----5-4----|
D|-4---5-4----|   X4
A|-4---3-2----|
E|-2----------|


That's it
Comments