Varukers - Die For Your Government Chords & Tabs

 

Die For Your Government Chords & Tabs

Varukers Chords & Tabs

Version: 2 Type: Tab 0 ratings
1 star 2 stars 3 stars 4 stars 5 stars
comments

Die For Your Government Tab

   intro
E---------------|let this ring..
B--0--0--0--0---|
G--9--7--5--4---|
D--9~-7~-5~-4~--|
A--7~-5~-3~-2~--|then you pickslide.
Ex--------------|
x 4
   verse
E---------------------------|
B--9-9-9-9-9-9--------------|
G--9-9-9-9-9-9--------------|
D--9-9-9-9-9-9-xxxxxx--10-9-|
A--7-7-7-7-7-7-xxxxxx--10-9-|
E----------------------8--7-|
x4
   chorus
Ex---------------|
Bx---------------|
G--6--9---11--10-|
D--7--10--12--10-|
A--7--10--12--8--|
E--5--8---10--8--|

outro
E--------------|let ring..
B--0--0--0--0--|
G--9--7--5--4--|
D--9~-7~-5~-4~-|
A--7~-5~-3~-2~-|then you pickslide.
Ex-------------|
.....x3 then

E------------------|let ring
B--0--0--0--0--0-0-|
G--9--7--5--4--7-9-|
D--9~-7~-5~-4~-7-9-|
A--7~-5~-3~-2~-5-7-|
Ex-----------------|

intro
verse
chorus
verse
chorus
outro
[ Tab from: http://www.guitartabs.cc/tabs/v/varukers/die_for_your_government_tab_ver_2.html ]
Comments