Varukers - All Systems Fail Chords & Tabs

 

All Systems Fail Chords & Tabs

Varukers Chords & Tabs

Version: 1 Type: Tab 0 ratings
1 star 2 stars 3 stars 4 stars 5 stars
comments

All Systems Fail Tab

Band:The Varukers
Song:All Systems Fail
Tabbed By:Oppressor

1st part                       2nd part           3rd part
e---------------------------   ----------------   ------------|
b---------------------------   ----------------   ------------|
g---------------------------   ----------------   ------------|
d-----999---999---999-------   ------------9---   ------------|
a---9-777-9-777-9-777-777---   ---7/9-9999-7---   ---6\7777---|
e---7-----7-----7-----555---   ---5/7-7777-----   ---4\5555---|

4th part
e----------------------------------------------------------|
b----------------------------------------------------------|
g----------------------------------------------------------|
d---1212121212-999999999-7-9-7-7------------7--------------|
a---1010101010-777777777-5-7-5-5-9999999999-5-9999999999---|
e--------------------------------7777777777---7777777777---|
[ Tab from: http://www.guitartabs.cc/tabs/v/varukers/all_systems_fail_tab.html ]
Solo
e----------------------------------------------------------|
b----------------------------------------------------------|
g----------------------------------------------------------|
d------------12----12-14-14-14-14-14-14-12---12-14-14-14---|
a------12-14----14-----^--^--^--^--^-------14----^--^--^---|
e---14-----------------------------------------------------|

e---18-18-15----15-18-15-18-181818-------------------------------------|
b----^------18------------^--^-^-^-------------------------------------|
g----------------------------------------------------------------------|
d-------------------------------------------12----14-14-12-14-141414---|
a-------------------------------------12-14----14--^-------------------|
e----------------------------------14----------------------------------|

Ending Chord
e-------|
b-------|
g-------|
d-------|
a---9---|
e---7---|

Song Structure:
1st part: 4x   1st part: 4x   In the version that I have of this song the
2nd part: 4x   Solo:          the distortion sounds really scratchy so it
3rd part: 4x   4th part: 2x   might help to use a very scratchy sounding
2nd part: 2x   1st part: 4x   distortion. Thats if you want it to sound the
4th part: 2x   2nd part: 4x   the way they play it. Any questions, comments
1st part: 4x   3rd part: 4x   or requests email me at
2nd part: 4x   2nd part: 2x   mortified_dormition@yahoo.com.
3rd part: 4x   4th part: 2x   and please rate my tab.
2nd part: 2x   1st part: 4x
4th part: 2x   Ending chord x1
1st part: 4x
2nd part: 4x
3rd part: 4x
2nd part: 2x
4th part: 2x
Comments