Vapors - Turning Japanese Chords & Tabs

 

Turning Japanese Chords & Tabs

Vapors Chords & Tabs

Version: 1 Type: Bass Tab 0 ratings
1 star 2 stars 3 stars 4 stars 5 stars
comments

Turning Japanese Bass Tab

Song:	Turning Japanese
Artist:	Vapours, The
Author:	Redact207
Playon:	4-String(Regular strings/tuning)

/* I'll update this as soon as I get the Verse 100% */

Intro:
G -----------------------------------------
D -----------------------------------------
A 10-10-10-10-8-8-5-5-8--------------------
E -----------------------------------------

Verse
G -----------------------------------------
D -----------------------------------------
A -----------------------------------------
E 3-3-3-3-0-0-0-0--------------------------

G -----------------------------------------
D -----------------------------------------
A -----------------------------------------
E 5-3-0------------------------------------

Fake PreChorus x2
G -----------------------------------------
D -----------------------------------------
A --3-7-5-3-3-7-5--------------------------
E 3----------------------------------------

then
G -----------------------------------------
D -----------------------------------------
A 5-3-h5-3-h5-3-h5-3-h5-3-h5-3-h5-3-h5-3---
E -----------------------------------------
[ Tab from: http://www.guitartabs.cc/tabs/v/vapors/turning_japanese_btab.html ]
PreChorus
G -----------------------------------------
D -----------------------------------------
A ----5------------------------------------
E 5-3--------------------------------------

Chorus
G -----------------------------------------
D -----------------------------------------
A --------55555555--------33333333---------
E 33333333--------11111111-----------------

PostChorus
G -----------------------------------------
D -----------------------------------------
A -----------------------------------------
E 3--3-2--2-1--1-2-------------------------

Bridge
G -----------------------------------------
D -----------------------------------------
A ----------------5-5-5-5-7-8---8---8---8--
E 3-3-3-3-3-3-3-3-------------8---8---8---8

G -----------------------------------------
D -----------------------------------------
A ---------5---5------------3---3----------
E 33333333---5---5-11111111---3---3--------

Outro (follows on from PostChorus)
G -----------------------------------------
D -----------------------------------------
A -----------------------------------------
E 3--3-2--2-111111-------------------------

Listen to the song for the timing and the order, it
isn't hard at all. I'm pretty sure most of this is 
correct bar the verse. But I'll be adding the real 
verse when I get some more time; if you beat me to it 
then send it in.
Comments