Vapnet - Kalla Mig Chords & Tabs

 

Kalla Mig Chords & Tabs

Vapnet Chords & Tabs

Version: 1 Type: Tab 0 ratings
1 star 2 stars 3 stars 4 stars 5 stars
comments

Kalla Mig Tab

It's a swedish band, not that known, but many people listen to the songs


Intro:

G D A7sus4 D     (You'll have to play this part very fast)
[ Tab from: http://www.guitartabs.cc/tabs/v/vapnet/kalla_mig_tab.html ]
1|10-10-10-9-9-9-7-7-7--2-2--5-5-5-5--2-2-2--7-7-7-5-5-5-3-3-3--3-2-3-2-2-2-|
2|0--0--0--0-0-0-0-0-0--0-0-0-0-0-0-0-0-0-0-0-0-0-0-0-0-0-0-0-0-0-0-0-0-0-0-|
3|0--0--0--0-0-0-0-0-0--0-0-0-0-0-0-0-0-0-0-0-0-0-0-0-0-0-0-0-0-0-0-0-0-0-0-|
4|--------------------------------------------------------------------------|
5|--------------------------------------------------------------------------|
6|--------------------------------------------------------------------------|


1|--------------------------------------------|
2|2-2--2-3-2-3--3-3-5-3-8-8--8-7-5-3--3-3-5-3-|
3|--------------------------------------------|
4|--------------------------------------------|
5|--------------------------------------------|
6|--------------------------------------------|


tabbed by: David Dawod (david_dawod@hotmail.com) and Sinan Mikhaeel (sinanmikhaeel_1989@hotmail.com)
Comments