Vanilla Ice - Ice Ice Baby Chords & Tabs

 

Ice Ice Baby Chords & Tabs

Vanilla Ice Chords & Tabs

Version: 3 Type: Tab 0 ratings
1 star 2 stars 3 stars 4 stars 5 stars
comments

Ice Ice Baby Tab

Intro & Chorus:
e----------------------------------------------------------|
B----------------------------------------------------------|
G----------------------------------------------------------|
D----------------------------------------------------------|
A--5-5-5-5555-0--5-5-5-5555-0--5-5-5-5555-0--5-5-5-5555-0--|
E----------------------------------------------------------|
Play along w/ the song to see how many times to play it for both parts.
[ Tab from: http://www.guitartabs.cc/tabs/v/vanilla_ice/ice_ice_baby_tab_ver_3.html ]
 Verses:                                                                      
e----------------------------------------------------------|
B----------------------------------------------------------|
G----------------------------------------------------------|
D---------5~3-5-3------------------5~3-5-3-----------------|
A--5~5-7-5-------5~3-5-3----5~5-7-5-------5~3-5-3----------|
E-----------------------3~-----------------------3~--------|
     ~ = hold note, and let it ring
Comments