Vangelis - Chariots Of Fire Chords & Tabs

 

Chariots Of Fire Chords & Tabs

Vangelis Chords & Tabs

Version: 4 Type: Tab 0 ratings
1 star 2 stars 3 stars 4 stars 5 stars
comments

Chariots Of Fire Tab

----------------------------------------------------------------------------
			  Chariots of Fire - Vangelis
----------------------------------------------------------------------------
Tabbed by: AM's Bassist

Key:
~  hold note

Tuning: Standard (EADGBe)

Intro:
e|-----------------------------|
B|-----------------------------|
G|-----------------------------|
D|-----------------------------| repeat a few times
A|------------------7~---------|
E|------5~---------------------|

Riff A: (I'm not sure what strings this is played on, so you can move up or down the
strings to where you think it sounds right)
e|------------------------------------------------------------|
B|------------------------------------------------------------|
G|------------------------------------------------------------|
D|-----7-9-11-9-6-----7-9-11-9~-----7-9-11-9-6------7-6-------|
A|--7--------------7-------------7---------------7-------7-7--|
E|------------------------------------------------------------|
[ Tab from: http://www.guitartabs.cc/tabs/v/vangelis/chariots_of_fire_tab_ver_4.html ]
Riff B: (Again, not sure which string this is on, but make sure you play it on the same
string you play the 7-9-11-9-6 part of Riff A on)
e|------------------------------------------------------------------|
B|------------------------------------------------------------------|
G|------------------------------------------------------------------|
D|--12-11-9-7-9-5-7-3-5--12-11-9-7-9--12-11-9-7-9-6-7-3-5-6-5-6-----|
A|--------------------------------------------------------------7-7-|
E|------------------------------------------------------------------|

Outro:
e|-----7-9-11-9-6-----7-9-11-9~-----7-9-11-9-6------7-6-------|
B|--7--------------7-------------7---------------7-------7-7--|
G|------------------------------------------------------------|
D|------------------------------------------------------------| x 1
A|------------------------------------------------------------|
E|------------------------------------------------------------|

e|-----7-6--------|
B|--7-------7-7---|
G|----------------|
D|----------------| repeat and fade
A|----------------|
E|----------------|
Comments