Vangelis - Chariots Of Fire Chords & Tabs

 

Chariots Of Fire Chords & Tabs

Vangelis Chords & Tabs

Version: 3 Type: Tab 0 ratings
1 star 2 stars 3 stars 4 stars 5 stars
comments

Chariots Of Fire Tab

This is the piano part for chariots of fire. This is very accurate,
but some variations occur. There are 3 main phrases that vary slightly
in parts of the song

part 1
e/------------------------------------------------------|
b/----------9---11---9----------------------------------|
g-------11----------------------------------------------|
d----11------------------11-----------------------------|
a-------------------------------------------------------|
e-------------------------------------------------------|

Part 2
[ Tab from: http://www.guitartabs.cc/tabs/v/vangelis/chariots_of_fire_tab_ver_3.html ]
e/-----------------------------------------------------|
b/-----------------------------------------------------|
g-------11---10----------------------------------------|
d----11----------11---11-------------------------------|
a------------------------------------------------------|
e------------------------------------------------------|

part 3

e/---9--8-----------8----------------------------------|
b/---------11---9-------11---9-------------------------|
g------------------------------------------------------|
d------------------------------------------------------|
a------------------------------------------------------|
e------------------------------------------------------|
Comments