Vanessa Carlton - Twilight Chords & Tabs

 

Twilight Chords & Tabs

Vanessa Carlton Chords & Tabs

Version: 1 Type: Tab 0 ratings
1 star 2 stars 3 stars 4 stars 5 stars
comments

Twilight Tab

   
-Standard Tuning

This is the intro to Vanessa's lovely song "Twilight". It is normally played on
the piano, but this sounds cool too.

INTRO

HIGH E-----------------------------------------------------------------------
-----------------------------------------------------------------------------
-----------------------------------------------------------------------------
----------------12---10-------------10----8-----------8---7---------7---5---7
------------11-----------------11-----------------11-------------------------
LOW E:---11---------------12------------------9---------------11------------


HIGH E:---------------------------------------------------------------------
----------------------------------------------------------------------------
----------------------------------------------------------------------------
-----------------12---13----------12---10-----------8---7--------10---8---7-
-------------11---------------11----------------11--------------------------
LOW E:---11---------------12-----------------9---------------11-------------

VERSES:

HIGH E
------------------------------------------------------------------
------------------------------------------------------------------
------------------10--------------10----------------10------------
-------------11-------11------11------11------11---------11-------
LOW E:---11----------------12---------------9---------------------

Repeat until
[ Tab from: http://www.guitartabs.cc/tabs/v/vanessa_carlton/twilight_tab.html ]
CHORUS (this part gets a little tricky) 
Any frets in parentheses are only played the first time

HIGH E:------------------------------------------------------------------------
-------------------------------------------------------------------------------
-------------------------------------------------------------------------------
--------(11)-----11------------------11-----------------11--------------11-----
--------(11)-11------11---------11--------11--------11------11------11-------11
LOW E:----9----------------8--------------------6----------------4-------------

Repeat until done, then play intro, then verse 2, which is the same as verse 1.
When done with verse 2, play chorus again. Then intro. Then

BRIDGE: (as the sun shines through)

HIGH E:-----------------------------------------------------------
------------------------------------------------------------------
------------------------------------------------------------------
------------10---14---10-------10---14---10-------10----14---10---
---------11-----------------9-----------------7-------------------
LOW E:------------------------------------------------------------

Then you play chorus, then intro, then verse 1, then chorus then intro twice out.

Basically it is

INTRO
VERSE 1
CHORUS
INTRO
VERSE 2
CHORUSE
INTRO
BRIDGE
CHORUS
INTRO
VERSE 1
CHORUS
INTRO
INTRO (fade)

Any questions e-mail @ mojojoey2002@netscape.net me or private message me!
CHORUS
Comments