Vanessa Carlton - Thousand Miles Chords & Tabs

 

Thousand Miles Chords & Tabs

Vanessa Carlton Chords & Tabs

Version: 1 Type: Tab 0 ratings
1 star 2 stars 3 stars 4 stars 5 stars
comments

Thousand Miles Tab

Song: A Thousand Miles
Artist: Vanessa Carlton
Transcribed by: Chris Berry


E------19-----19--18-----18----------------------------19----19--18----18---------------------------------------|
B-----------------------------19--------16----------------------------------19----19----19------16-17-16--------|
G--16-----16---------16--------------------18--16---------16--------16---------16----16----16------------16-----|
D---------------------------------------------------------------------------------------------------------------|
A---------------------------------------------------------------------------------------------------------------|
E---------------------------------------------------------------------------------------------------------------|


E------19-----19--18-----18-------------------------------------------------------------------------------------|
B-----------------------------19--------16--------------16-------16----------19---------------------------------|
G--16-----16---------16--------------------18--16----------18-16----18-16-----------16--------------------------|
D---------------------------------------------------------------------------------------------------------------|
A---------------------------------------------------------------------------------------------------------------|
E---------------------------------------------------------------------------------------------------------------|

"Making my way downtown..."

E--7-6------------7-6------------------7---7--6---6------------------------------7---7--6---6---------------------------|
B---------7-5-------------7-5--------------------------7---7---7-----4-5-4------------------------7---7---7-----4-5-4---|
G--4-4----4-4-----4-4-----4-4--------4---4------4--------4---4---4---------4--------4------4--------4---4---4---------4-|
D-----------------------------------------------------------------------------------------------------------------------|
A-----------------------------------------------------------------------------------------------------------------------|
E-----------------------------------------------------------------------------------------------------------------------|
[ Tab from: http://www.guitartabs.cc/tabs/v/vanessa_carlton/thousand_miles_tab.html ]
"Staring blankly ahead.."
E--7-6------------7-6------------------7---7--6---6------------------------------7---7--6---6---------------------------|
B---------7-5-------------7-5--------------------------7---7---7-----4-5-4------------------------7---7---7-----4-5-4---|
G--4-4----4-4-----4-4-----4-4--------4---4------4--------4---4---4---------4--------4------4--------4---4---4---------4-|
D-----------------------------------------------------------------------------------------------------------------------|
A-----------------------------------------------------------------------------------------------------------------------|
E-----------------------------------------------------------------------------------------------------------------------|
                     "and I need you.."                   "And i miss you.."
E-----------------------------------------------------------------------------------------------------------------------|
B--0-0-0---4-4-4--2---------------------0-0-0---4-4-4--2-----------------------0-0-0---4-4-4--2-------------------------|
G--4-4-4---4-4-4--4---------------------4-4-4---4-4-4--4-----------------------4-4-4---4-4-4--4----------4--3-----------|
D-----------------------------------------------------------------------------------------------------------------------|
A-----------------------------------------------------------------------------------------------------------------------|
E-----------------------------------------------------------------------------------------------------------------------|
             x12 "If I could just, see, you.."
E------------|-------------------7---11----9-------------------|
B--------19--|-------------------------------------------------|
G--15-16-----|-------------------4----8----6-------------------|
D------------|-------------------------------------------------|
A------------|-------------------------------------------------|
E------------|-------------------------------------------------|
                                                                                            x2
E---------7---7--6---6--------------------------------7---7--6---6--------------------------|
B--------------------------7---7---7-----4-5-4------------------------7---7---7-----4-5-4---|
G-------4---4------4---------4---4---4---------4--------4------4--------4---4---4---------4-|
D-------------------------------------------------------------------------------------------|
A-------------------------------------------------------------------------------------------|
E-------------------------------------------------------------------------------------------|

"Its always times like these.."
E--7-6------------7-6------------------7---7--6---6------------------------------7---7--6---6---------------------------|
B---------7-5-------------7-5--------------------------7---7---7-----4-5-4------------------------7---7---7-----4-5-4---|
G--4-4----4-4-----4-4-----4-4--------4---4------4--------4---4---4---------4--------4------4--------4---4---4---------4-|
D-----------------------------------------------------------------------------------------------------------------------|
A-----------------------------------------------------------------------------------------------------------------------|
E-----------------------------------------------------------------------------------------------------------------------|

E--7-6------------7-6------------------7---7--6---6------------------------------7---7--6---6---------------------------|
B---------7-5-------------7-5--------------------------7---7---7-----4-5-4------------------------7---7---7-----4-5-4---|
G--4-4----4-4-----4-4-----4-4--------4---4------4--------4---4---4---------4--------4------4--------4---4---4---------4-|
D-----------------------------------------------------------------------------------------------------------------------|
A-----------------------------------------------------------------------------------------------------------------------|
E-----------------------------------------------------------------------------------------------------------------------|

                 "Cause i'll need you.."                  "and i'll miss you.."
E-----------------------------------------------------------------------------------------------------------------------|
B--0-0-0---4-4-4--2---------------------0-0-0---4-4-4--2-----------------------0-0-0---4-4-4--2-------------------------|
G--4-4-4---4-4-4--4---------------------4-4-4---4-4-4--4-----------------------4-4-4---4-4-4--4----------4--3-----------|
D-----------------------------------------------------------------------------------------------------------------------|
A-----------------------------------------------------------------------------------------------------------------------|
E-----------------------------------------------------------------------------------------------------------------------|

             x12 "If I could just, see, you..tonight"
E------------|-------------------7---11----9-------------------|
B--------19--|-------------------------------------------------|
G--15-16-----|-------------------4----8----6-------------------|
D------------|-------------------------------------------------|
A------------|-------------------------------------------------|
E------------|-------------------------------------------------|

E----7---7--6---6----------------------------------7---7--6---6----------------------------|
B-------------------7---7---7-----4-5-4---------------------------7---7---7-----4-5-4------|
G--4---4------4-------4---4---4---------4--------4----4-----4-------4---4---4---------4----|
D------------------------------------------------------------------------------------------|
A------------------------------------------------------------------------------------------|
E------------------------------------------------------------------------------------------|

E----7---7--6---6------------------------------------------------------------|
B-------------------7---7---7-----4-5-4-----4------4-------7---------4-------|
G--4---4------4-------4---4---4---------4-----6-4----6-4--------6--6---6-4---|
D----------------------------------------------------------------------------|
A----------------------------------------------------------------------------|
E----------------------------------------------------------------------------|

Just listen to the rest and find corresponding part...it just repeats...
Comments