Vanderbilt Chase - Hot Pink Bikini Chords & Tabs

 

Hot Pink Bikini Chords & Tabs

Vanderbilt Chase Chords & Tabs

Version: 1 Type: Tab 0 ratings
1 star 2 stars 3 stars 4 stars 5 stars
comments

Hot Pink Bikini Tab





                              Hot Pink Bikini

---0-5-3-0-0---5-3-0-0-0-3-5-
-----------------------------
-----------------------------
-----------------------------
-----------------------------
-----------------------------

[ Tab from: http://www.guitartabs.cc/tabs/v/vanderbilt_chase/hot_pink_bikini_tab.html ]
-0-5-3-0-0-0-----3-0-3-5-5-3-0-
-------------5-3---------------
-------------------------------
-------------------------------
-------------------------------
-------------------------------


    -0-0-0---0-0---5-5-5---0-0---0-0-0- 
*3  -0-0-0---3-3---3-3-3---3-3---0-0-0-
    -0-0-0---3-3---3-3-3---3-3---0-0-0-

Comments